Search billions of records on Ancestry.com

Back to INDEX Back to CONTENTS

Yoder Census Records

Compiled by the Yoder Newsletter

YODER FAMILY INFORMATION--CYBERSPACE EDITION-1997

published by the Yoder Family Newsletter, Goshen, Indiana

*********************************************************************

These files are presented by the Yoder Newsletter (YNL, P O Box 594,Goshen, IN 46527 for subscription information). For content update, write Chris Yoder, 203 Lakeshire Rd., Battle Creek, MI 49015 or email at cyoder@tds.net.

We apologize in advance for any typographical errors in this work. Please help us correct and extend any of the information in these records. Due to inconsitencies in posting data, place of birth is not always entered. It can generally be assumed that if not identified as elsewhere the answer is "Pa", but original archive record should be checked to insure this is the case. Thanks to Dorothy Coffman for reviewing and validating the content of this listing against the SOUNDEX records of the US Census.


CENSUS RECORDS FOR YODER FAMILIES IN INDIANA -1880- These records were originally assembled by the Yoder Newsletter over several years and revalidated in 1997 by Dorothy Yoder Coffman, 30 Grouse Road, Malvern, Pa, 19355 2208. We have also added the identification number for those heads of household whose identity is known. These codes relate to the family groups which have been archived elsewhere. Chris Yoder

*********************************************************************

YODERS-IN-1880-INDIANA-CENSUS-NAME-SEQUENCE

TOTAL-

-----------INDIANA---------1880----------SOUNDEX

-----------------------

NAME------AGE------COUNTY-----------FAMILY

 

Yetter-------A------38------Henry

Yoder------Aaron------41------Howard

Yoder------Aaron------35------Lagrange

Yoder------Aaron-H------41------Lagrange

Yoder------Abraham------41------Clay

Yoder------Amos------44------Delaware

Yoder------Andrew-J------25------Noble

Yoder------Andrew------51------St-Joseph

Yeater------Andrew------27------Wabash

Yeter------Balton------28------Spencer

Yoder------Benjamin------54------Elkhart

Yoder------Benjamin------44------Miami

Yoder------C.C.------57------Howard

Yoder------Christian------26------Lagrange

Yoder------Christian-S------35------Lagrange

Yoder------Christopher------32------Lagrange

Yoder------Cornelius------29------Kosciusko

Yoter------Cornet-H------26------Ripley

Yoder------Cristan-C------61------Lagrange

Yoder------Daniel------27------Allen

Yoder------Daniel------25------Delaware

Yoder------Daniel-L------36------Elkhart

Yoder------Daniel-J------28------Lagrange

Yoder------Daniel------42------Lagrange

Yoder------Daniel------23------Lagrange

Yoder------Daniel------45------Marshall

Yoder------Daniel------30------Newton

Yoder------David-W------27------Elkhart

Yater------David------25------Jefferson

Yoder------David------36------Marshall

Yoder------Edward------28------Brown

Yetter------Eli-Charles------40------DeKalb

Yoder------Eli-D------29------Lagrange

Yoder------Eli------31------Newton

Yeidor------Frank------40------Tippecanoe

Yeater------G.W.------42------Whiteley

Yoder------Gabriel------45------Miami

Yoder------George-W------28------Delaware

Yoder------George------25------Elkhart

Yater------George------32------Jefferson

Yoder------Gideon------43------Lagrange

Yetter------Gotleib------45------Marion

Yoder------Harmon------52------Lagrange

Yoder------Henry------51------Elkhart

Yoder------Henry------44------Elkhart

Yoder------Henry------45------Marshall

Yoder------Henry-S------33------Newton

Yoder------Henry-M------48------Noble

Yater------Holman-J------28------Ripley

Yoder------J.V.------36------Lagrange

Yoder------Jacob------53------Adams

Yutter------Jacob------24------Daviess

Yoder------Jacob------29------Daviess

Yodder------Jacob------47------Elkhart

Yoder------Jacob------32------Elkhart

Yoder------Jacob------32------Lagrange

Yoder------Jacob------48------Lagrange

Yoder------James-M------37------Brown

Yater------James-S------27------Ripley

Yater------Jane-L------59------Jennings

Yoder------Jeremiah------28------Elkhart

Yoder------Jeremiah------29------Lagrange

Yoder------Jess------41------Lagrange

Yater------John-P------32------Clinton

Yetter------John------55------Daviess

Yoder------John------35------Elkhart

Yoder------John-J------33------Elkhart

Yoder------John------43------Elkhart

Yoder------John-H------47------Lagrange

Yoder------John------19------Lagrange

Yoder------John-S------50------Lagrange

Yoder------John-C------58------Lagrange

Yoder------John-T------40------Newton

Yater------John------48------Ripley

Yoder------John------44------St-Joseph

Yoder------Jonas------28------Lagrange

Yoder------Jonas------40------Lagrange

Yoder------Jonas------49------Marshall

Yoder------Jonathan------35------Elkhart

Yoder------Jonathan------27------LaPorte

Yoder------Joseph------57------Adams

Yoder------Joseph-D------25------Elkhart

Yoder------Joseph-A------31------Elkhart

Yoder------Joseph-S------23------Elkhart

Yoder------Joseph-J------56------Lagrange

Yoder------Joseph-C------22------Lagrange

Yoder------Joseph------30------St.-Joseph

Yoder------Levi-J------28------Lagrange

Yoder------Levi------38------Noble

Yoder------Lorenzo------24------Elkhart

Yoder------Mary------56------Daviess

Yoder------Mary------52------Lagrange

Yoter------Melvin------25------Ripley

Yoder------Moses-F------32------Lagrange

Yoder------Noah------38------Elkhart

Yoder------Noah------36------Elkhart

Yoder------Noah------28------Elkhart

Yoder------Noah------26------Howard

Yoder------Noah-C------36------Lagrange

Yoder------Reuben------49------Lagrange

Yetter------Reuben------47------St.-Joseph

Yoder------Samuel------41------Elkhart

Yoder------Samuel------33------Elkhart

Yoder------Samuel-K------46------Lagrange

Yoder------Samuel------34------Lagrange

Yoder------Samuel------40------Marshall

Yoder------Simon------32------Lagrange

Yoder------Simon-B------53------Montgomery

Yoder------Simon-P------38------Noble

Yoder------Solomon------30------Elkhart

Yoder-------Tobias------48------Kosciusko

Yoder------Tobias------27------Lagrange

Yoder------Tobias------27------Lagrange

Yoder------Tobias-D------27------Lagrange

Yoder------Valentine------38------Lagrange

Yoder------Valentine------37------Lagrange

Yoder------Valentine-C------58------Lagrange

Yoder------William-J------24------Brown

Yoder------William------35------Wabash

Yeater------William-H------26------Wabash

Yoder------Yost------30------Elkhart

Yoder------Yost-D------34------Lagrange

 

NAME------AGE------COUNTY----INDIANA---1880

------------------------

Yoder------Jacob------53------Adams

Yoder------Joseph------57------Adams

Yoder------Daniel------27------Allen

Yoder------Edward------28------Brown

Yoder------James-M------37------Brown

Yoder------William-J------24------Brown

Yoder------Abraham------41------Clay

Yater------John-P------32------Clinton

Yutter------Jacob------24------Daviess

Yoder------Jacob------29------Daviess

Yetter------John------55------Daviess

Yoder------Mary------56------Daviess

Yetter------Eli-Charles------40------DeKalb

Yoder------Amos------44------Delaware

Yoder------Daniel------25------Delaware

Yoder------George-W------28------Delaware

Yoder------Benjamin------54------Elkhart

Yoder------Daniel-L------36------Elkhart

Yoder------David-W------27------Elkhart

Yoder------George------25------Elkhart

Yoder------Henry------51------Elkhart

Yoder------Henry------44------Elkhart

Yodder------Jacob------47------Elkhart

Yoder------Jacob------32------Elkhart

Yoder------Jeremiah------28------Elkhart

Yoder------John-J------33------Elkhart

Yoder------John------43------Elkhart

Yoder------John------35------Elkhart

Yoder------Jonathan------35------Elkhart

Yoder------Joseph-S------23------Elkhart

Yoder------Joseph-D------25------Elkhart

Yoder------Joseph-A------31------Elkhart

Yoder------Lorenzo------24------Elkhart

Yoder------Noah------38------Elkhart

Yoder------Noah------36------Elkhart

Yoder------Noah------28------Elkhart

Yoder------Samuel------41------Elkhart

Yoder------Samuel------33------Elkhart

Yoder------Solomon------30------Elkhart

Yoder------Yost------30------Elkhart

Yetter-------A------38------Henry

Yoder------Aaron------41------Howard

Yoder------C.C.------57------Howard

Yoder------Noah------26------Howard

Yater------David------25------Jefferson

Yater------George------32------Jefferson

Yater------Jane-L------59------Jennings

Yoder------Cornelius------29------Kosciusko

Yoder-------Tobias------48------Kosciusko

Yoder------Aaron-H------41------Lagrange

Yoder------Aaron------35------Lagrange

Yoder------Christian------26------Lagrange

Yoder------Christian-S------35------Lagrange

Yoder------Christopher------32------Lagrange

Yoder------Cristan-C------61------Lagrange

Yoder------Daniel------23------Lagrange

Yoder------Daniel-J------28------Lagrange

Yoder------Daniel------42------Lagrange

Yoder------Eli-D------29------Lagrange

Yoder------Gideon------43------Lagrange

Yoder------Harmon------52------Lagrange

Yoder------J.V.------36------Lagrange

Yoder------Jacob------32------Lagrange

Yoder------Jacob------48------Lagrange

Yoder------Jeremiah------29------Lagrange

Yoder------Jess------41------Lagrange

Yoder------John-S------50------Lagrange

Yoder------John-H------47------Lagrange

Yoder------John------19------Lagrange

Yoder------John-C------58------Lagrange

Yoder------Jonas------28------Lagrange

Yoder------Jonas------40------Lagrange

Yoder------Joseph-C------22------Lagrange

Yoder------Joseph-J------56------Lagrange

Yoder------Levi-J------28------Lagrange

Yoder------Mary------52------Lagrange

Yoder------Moses-F------32------Lagrange

Yoder------Noah-C------36------Lagrange

Yoder------Reuben------49------Lagrange

Yoder------Samuel-K------46------Lagrange

Yoder------Samuel------34------Lagrange

Yoder------Simon------32------Lagrange

Yoder------Tobias------27------Lagrange

Yoder------Tobias-D------27------Lagrange

Yoder------Tobias------27------Lagrange

Yoder------Valentine------37------Lagrange

Yoder------Valentine-C------58------Lagrange

Yoder------Valentine------38------Lagrange

Yoder------Yost-D------34------Lagrange

Yoder------Jonathan------27------LaPorte

Yetter------Gotleib------45------Marion

Yoder------Daniel------45------Marshall

Yoder------David------36------Marshall

Yoder------Henry------45------Marshall

Yoder------Jonas------49------Marshall

Yoder------Samuel------40------Marshall

Yoder------Benjamin------44------Miami

Yoder------Gabriel------45------Miami

Yoder------Simon-B------53------Montgomery

Yoder------Daniel------30------Newton

Yoder------Eli------31------Newton

Yoder------Henry-S------33------Newton

Yoder------John-T------40------Newton

Yoder------Andrew-J------25------Noble

Yoder------Henry-M------48------Noble

Yoder------Levi------38------Noble

Yoder------Simon-P------38------Noble

Yoter------Cornet-H------26------Ripley

Yater------Holman-J------28------Ripley

Yater------James-S------27------Ripley

Yater------John------48------Ripley

Yoter------Melvin------25------Ripley

Yeter------Balton------28------Spencer

Yoder------Andrew------51------St-Joseph

Yoder------John------44------St-Joseph

Yoder------Joseph------30------St.-Joseph

Yetter------Reuben------47------St.-Joseph

Yeidor------Frank------40------Tippecanoe

Yeater------Andrew------27------Wabash

Yoder------William------35------Wabash

Yeater------William-H------26------Wabash

Yeater------G.W.------42------Whiteley

___________________________________________________

 

-------NAME------AGE------BORN------COUNTY------------FAMILY-

 

------Yoder------Jacob------53------Alsace------Adams (YA44)

------------Catherine------38------OH

------------Mary------18------IN------

------------John------16

------------Catherine------13

------------Jesse------71------IN

------------Enoch-------9------"

------------Noah-------7

------------Elizabeth-------5

------------Solma-------3------dtr

------------Emma-------1

-------------------------------------------

------Yoder------Joseph------57------France------Adams (YA41)

------------Catherine------47--------"

------------Anna------24------IN

------------Jacob------23------"

------------Christian------18

------------Peter------17

------------Catherine------11

------------Rachael-------7

--------------------------------------------

------Yoder------Daniel------27------OH------Allen (?YA242)(BV)

------------Anna------26

------------Noah-------5

------------David-------2

------------Mahala-------1------dtr

-------------------------------------------

------Yoder------Edward------28------------Brown (Con295)

------------Felicia-J------24

------------?-male-------2

-------------------------------------------

------Yoder------James-M------37------IN------Brown (Con261)

------------Jane------26------"

------------Marian------10------son

------------Ira-------6------son

------------Ida-------5------dtr

------------Myrtie-------1

-------------------------------------------

------Yoder------William-J------24------IN------Brown (Con296)

------------Nancy------26

------------John------2/12

-------------------------------------------

------Yeider------Charles-------2------IN------Cass

----------------with-family-of-Robert-Newberry,-his-uncle

-------------------------------------------

------Yoder------Abraham------41------PA------Clay (YB11322)

------------Lidia------40------OH

------------Mary------15------"

------------Joseph------14------"

------------Jacob------12------"

------------Elizabeth-------9------"

------------Solomon-------7------IN

------------Susan-------4------"

------------William------4/12------"

-------------------------------------------

------Yater------John-P------32------IN------Clinton

------------Rachel------31------"

------------William-------8------"

-------------------------------------------

------Yoder------Jacob------29------OH------Daviess (YR233852)

------------Mary-------5------IN

------------------(this-family-with-Mary-Yoder)

-------------------------------------------

------Yutter------Jacob------24------IN------Daviess (YA281)

------------Anna------23------"

------------Victor-------2------"

------------Jacob------3/12

-------------------------------------------

------Yetter------John------55------NY------Daviess (?YA26)

------------Margaret------48------PA

------Rumer------Minnie-------8------IN---grnd.dtr

-------------------------------------------------------------

------Yoder------Mary------56------OH------Daviess (w/oYR23385)

------------Quincy------24------IN

----------------------------Malinda------16------"

------Allen------Susanna------26-----------dtr

------------Charles-------1-----------grnd/son

-------------------------------------------

------Yetter------Eli-Charles------40------NY------DeKalb

------------Mary-Jane------37------OH

------------Millie-------5

------------Charles-D-------3

------------Frank-M-------1

------------------------------------------

------Yoder------Amos------44------PA------Delaware

------------Elizabeth------53------OH

------Littlefield,--Samuel------25------IN

------------Charles------19------MN

------------William------18------WI

------------Minnie-------7------IN

-------------------------------------------

------Yoder------Daniel------25------VA------Delaware

------------Mattie------28------"

------------Ira------9/12------IN

-------------------------------------------

------Yoder------George-W------28------OH------Delaware

------------Mary-Jane------26

------------Charles-E-------7

------------Rosa-M-------4

------------Edward-E------4/12

------------Nora------4/12

-------------------------------------------

------Yoder------Benjamin------54------OH------Elkhart (YR16261)

------------Elizabeth------36------OH

------------Osias------12

------------Menno------10

------------Mary-------8

------------Jonas--------4

------------Martha-------2

------Yoder------Menno------19

-------------------------------------------

------Yoder------Daniel-L------36------OH------Elkhart (YR125352)

------------Eva------34------"

------------Saloma------12

------------Simon------10

------------Elizabeth-------8

------------Lydia-------6

------------Daniel-------5

------------Emma-------1

-------------------------------------------

------Yoder------David-W------27------OH------Elkhart

------------Sarah------27

------------Violett-------3

------------Levi------10/12

-------------------------------------------

------Yoder------Fiana-------3------IN------Elkhart

----------------living-with-Mary-Mast,-her-neice

-------------------------------------------

------Yoder------George------25------PA------Elkhart (YR235531)

------------Mary------25------OH

------------Edward-------3

------------Elenora-------1

------------------------------------------

------Yoder------Henry------51------OH------Elkhart (YB1378)

------------Elizabeth------48------PA

------------Elizabeth------21------OH

------------Nicholas------16------"

------------Abraham------12------IN

------------Anthony------10/12------"

-------------------------------------------

------Yoder------Henry------44------OH------Elkhart (YR234b2)

------------Mary------47------"

------------Jonas------22------"

------------Anna------19------"

------------Frederick------18------IN

------------Fanna------16----dtr------"

------------Jacob-------9------MO

-------------------------------------------

------Yodder------Jacob------47------OH------Elkhart (YB13423)

------------Barbra------43------PA

------------Susannah------25------IN

------------Lydia-Ann------21------"

------------Benjamin------17

------------Eliza-Ann------16

------------John------13

------------Barbra-------6

-------------------------------------------

------Yoder------Jacob------32------OH------Elkhart (YR251246)

------------Catherine------22------IN

------------Dennis-------1

------------Arch------1/12

------------------------------------------

------Yoder------Jeremiah------28------PA------Elkhart (YR23374c)

------------Elizabeth------27------IN

------------Lavina-------4------"

------------Jacob-------2

------------Infant------2/12

------------David-C------62------PA---grnd/f

------------------------------------------

------Yoder------John------35------IN------Elkhart (YR239a3)

------------Catherine------36------Gmy

------------Elsina?------10------IN

------------Edward-------2

------------Irvin------10/12

------May------Anna------22

-------------------------------------------

------Yoder------John------43------PA------Elkhart (YR23493)

------------Lizzie------40------OH

------------Henry------20------IN

------------Manuel------18------"

------------Fannie------15

------------Harry------13

------------Ellen------10

------------Libbie-------7

------------Adie-------3---dtr

------------------------------------------

------Yoder------John-J------33------OH------Elkhart (YR233835)

------------Abbie------29------"

------------Saloma-------9------MO

------------Alda-May-------6------"

------------William------10/12------IN

-------------------------------------------------------

------Yoder------Jonathan------35------OH----Elkhart (YR23b82)

------------Hester------27------IN

------------Anna------12

------------David------10

------------Harvy-------5

------------Abert-------1----(spelling-is-correct)-male

------------------------------------------

------Yoder------Joseph-A------31----OH------Elkhart (YR23b83)

------------Mary------33------OH

------------Adie------11------IN---dtr

------------Sophronie-------8

------------Ella-------4

-------------------------------------------

------Yoder------Joseph-D------25----PA------Elkhart (YR236521)

------------Barbra------22------"

------------Nathamil-------2------IN--(spelling-is-correct)

-------------------------------------------

------Yoder------Joseph-S------23------IN-----Elkhart (YR125359)

------------Mary------18------"

------------Henry------5/12

Bartencourt------William------21------bro-in-law (?sic-Borkholder)

-------------------------------------------

------Yoder------Lorenzo------24------PA------Elkhart (YR23652)

------------Anna------20------"

-------------------------------------------

------Yoder------Noah------38------OH------Elkhart (YR261114)

------------Fannie------41------PA

-------------------------------------------

------Yoder------Noah------28------OH------Elkhart (YR235443)

------------Rachel------22------Canada

------------Meno------9/12------IN

-------------------------------------------

------Yoder------Noah------36------OH------Elkhart (YR125351)

------------Elizabeth------31------"

------------Nathan------8/12------IN

-------------------------------------------

------Yoder------Samuel------33------OH----Elkhart (YR261117)

------------Barbara------24------"

------------Luella-------7------IN

------------Ada-------6

------------Harvy-------4

------------Clara-------2

------------Rosa-------1

-------------------------------------------

------Yoder------Samuel------41----OH------Elkhart (YB13453)

------------Mary------38------"

------------Alphso?------14------"

------------Noah------12------"

------------Cornelius------10------IN

------------Mary-------2------IL

------------------------------------------

------Yoder------Solomon----30------IN------Elkhart (YR239a5)

------------Sarah-Ann------29

------------Martha-------7

------------Jennie-V-------5

------------Charles------5/12

-------------------------------------------

------Yoder------Yost------30------IN------Elkhart (YR125382)

------------Magdalena------28

------------Fannie-------4

------------Christian-------2

------------Elizabeth-------1

------------Gidion------50------OH---(spelling-OK)

-------------------------------------------

------Yetter------A------38------------Henry

------------Calla------32-(wf)

------------Mary------12

------------Lora--------9

-------------------------------------------

------Yoder------Aaron------41------PA------Howard (YR23494)

------------Sarah------32

------------Daniel------18

------------Jeremiah------17

------------Tina------15

------------William-------6

------------John-------4

------------Oliver-------2

-------------------------------------------

------Yoder------C.C.------57------PA------Howard (YR14627)

------------Rosayne------52------"

------------Jonathan------12

------------Minnie------10

------Sipe------Rebecca------10------step/dtr

------------Aaron-------8------step/son

-------------------------------------------

------Yoder------Elizabeth------10------IN------Howard

-----------------with-family-of-Emanuel-Mast,-listed-as-servant

-------------------------------------------

------Yoder------Noah------26------OH------Howard (YR146271)

------------Theresa------23------"

------------Lydia------4/12------IN

-------------------------------------------

------Yater------David------25------KY------Jefferson

------------Mary------24------IN

------------Thomas------?

-------------------------------------------

------Yater------George------32------KY------Jefferson

------------Mary------29

------------E____------10------dtr

------------Alta-------7------"

------------Benjamin-------3

-------------------------------------------

------Yater------Jane-L------59------KY------Jennings

------------Maggie------40------"

------------Walter-B-------6------IN

------Arnold------Jennie------23------"

-------------------------------------------

------Yoder------Cornelius------29----?------Kosciusko (YR233837)

------------Lolla?------24------OH

------------Charles-R-------1

-------------------------------------------

------Yoder------Tobias------48------OH----Kosciusko (YR125311)

------------Mary------43------"

-------------------------------------------

------Yoder------Aaron------35------PA------Lagrange (YR234434)

------------Magdalena------31------OH

------------Rudolph------13

------------John------12

------------Barbara------10

------------Abraham-------8

------------Peter-------5

------------Amos-------3

------------Aaron-------1

-------------------------------------------

------Yoder------Joseph------10------IN------Lagrange

--------------living-with-Harman-Stutzman-as-a-servant

--------------------------------------------

------Yoder----Aaron-H------41------OH----Lagrange (YR23572)

------------Anna------48------PA

------------Ezias------11

------------John------15

------------Emanuel------12

------------Manassa-------8---male

-------------------------------------------

------Yoder------Christian-H------26------PA------Lagrange (YR234492)

------------Martha------19------OH

------------Anna-------3

------------Lizzie-------1

-------------------------------------------

------Yoder------Christian-S------35------IN------Lagrange (YR234453)

------------Mary------34

------------Samuel-------4

-------------------------------------------

------Yoder------Christopher--32------PA------Lagrange (YR234535)

------------Mary------23

------------Harley-------3

------------Niles-------1

-------------------------------------------

------Yoder------Cristan-C------61------PA------Lagrange (YR23375)

------------Catherine------63------"

------Mishler------D.Levi------23------OH----son-in-law

------------Harriet------23----------------dtr

------------Adella--------3----------------grnd/dtr

------------Mary-------2-------------------"

--------------------------------------------

------Yoder------Daniel------23------OH------Lagrange (?YR25122c)

------------Lizzie------20------IN

------------Samuel-------1

------------Jonathan------2/12

-------------------------------------------

------Yoder------Daniel------42------OH------Lagrange (YR261113)

------------Catherine------41------"

------------Noah------20------"

------------Susan------10------IN

------------Amanda-------7------"

------------Angeline-------6------"

--------------------------------------------

------Yoder------Daniel-J------28------PA------Lagrange (YR233452)

------------Eliza------22

------------Laura-------5

------------Enos-------2

------------Clyde------4/12

-------------------------------------------

------Yoder------Eli-D------29------OH------Lagrange (YRB1714)

------------Milo-C-------4------(with-fam/of-Christian-Stukey)

-------------------------------------------

------Yoder------Gideon------43------IN------Lagrange (YRB1116)

------------Barbara------31

------------Joseph-------8------MI

------------Fanny-------5------"

------------Haddassan-------3------"------(spelling-as-found)male

------------Matilda------1------"

------------M-John-------1------"

-------------------------------------------

------Yoder------Harmon------52------PA------Lagrange (YR23449)

------------Barbara------32------OH

------------Harmon------16------IN

------------Jacob------13------"

------------Mattie-------9

------------Joas-------3--son

-------------------------------------------

------Yoder------J.V.------36------PA------Lagrange (YR162413)

------------Anne------32------OH

------------Alonzo------10------IN

------------Charles-------8

------------Orra-------4------dtr

------------Franklin-------1

------------Menno------26------bro

-------------------------------------------

------Yoder------Jacob------32------PA------Lagrange (YRB1713)

------------Malinda------24------OH

------------Salome-------2------IN

------------Mary------8/12

-------------------------------------------

------Yoder------Jacob------48------PA------Lagrange (YR23653)

------------Magdalena------33------OH

------------Jacob------19------PA

------------William------17------PA

------------Samuel------13------IN

------------Fanny-------9------"

------------Lizzie-------7

------------Andrew-------4

------------Susan-------1

-------------------------------------------

------Yoder------Jeremiah------29------IN------Lagrange (YR234436)

------------Lyda-?------27------"

-------------------------------------------

------Yoder------Jess------41------PA------Lagrange (Joseph W.) (YR233412)

------------Catherine------35------"

------------Polly------10------IN

------------Pheba-------7

------------Edward-------1

-------------------------------------------

------Yoder------John------19------IN------Lagrange (YR234469)

------------Anna------18

------------infant------1/12

------------David------21------IN

------------------------------------------

------Yoder------John-C------58------PA------Lagrange (YR23446)

------------Catherine------61------"

------Borntrager-Levi------24------son-in-law

------------Sarah------22------dtr

------------John------10/12---------grnd/son

-------------------------------------------

------Yoder------Andrew-J-------8------IN------Lagrange

---------------with-family-of-Joseph-Bortranger,-his-uncle

-------------------------------------------

-------Yoder------John-H------47------PA------Lagrange (YR25642)

------------Fannie------45------OH

------------Simon------22------"

------------David------19------IN

------------Mary-Ann------17------"

------------Cassie------15

------------Silas------13

------------Lidie------10

------------George-------8

------------Abner-------6

------------Elton-------3

------------------------------------------

------Yoder------John-S------50------PA------Lagrange (YR12738)

------------Catherine------46------OH

------------Daniel------22------IN

------------Emanuel------18------"

------------Alvin-------9

------------Melvin------14

-------------------------------------------

------Yoder------Milo-C-------4------IN------Lagrange (YRB17141)

---------------living-with-Christian-Stukey,-his-grnd/son

-------------------------------------------

------Yoder------Jonas------28------IN------Lagrange (YR234474)

------------Dinah------23------PA

------------Meno-------6------IN

------------Fanny-------4

------------Polly-Ann-------3

------------Alice------9/12

-------------------------------------------

------Yoder------Jonas------40------PA------Lagrange (YR261135)

------------Barbara------30------OH------

------------[these-pple-had-3-young-children---no-relation]

---------------------------------------------

------Yoder------Joseph-C------22------IN------Lagrange (YR234456)

------------Sarah------26------PA

------------Magdalena-------4------IN

------------Ida-------3

------------Fannie-------2

-------------------------------------------

------Yoder------Rudolph------10------IN------Lagrange (YR26215)

---------------stepson-of-Andrew-Mishler

-------------------------------------------

------Yoder------Joseph-J------56------PA----Lagrange (YR23345)

------------Abner------22------IN---son

------------Levi------19

------------Polly------25-------------dtr

------------Lena------16

------Wenger------Amanda-------3-------------grnd/dtr

-------------------------------------------

------Yoder------Levi-J------28------IN------Lagrange (YR234465)

------------Rachel------25------OH

------------Christena-------2------IN

-------------------------------------------

------Yoder------Mary------52------OH------Lagrange (YR23565)

------------Samuel------24------IN

------------Moses------22------"

------------Sarah------21------"-----dtr

-------------------------------------------

------Yoder------Moses-F------32------IN----Lagrange (YR234435)

------------Fannie------27------"

------------Lisa-Ann-------8

------------Lydia-------6

------------Mary-Edna-------2

------------William-------1

-------------------------------------------

------Yoder------Noah-C------36------IN----Lagrange (YR233752)

------------Mary------35------Gmy

------------Allen------12------IN

------------M.James-------6------"

-------------------------------------------

------Yoder------Reuben------49----PA------Lagrange (YR2337a)

------------Harriett------50------IN------

------------Samuel------24------"

------------Daniel------22

------------Mary------19

------------Naemo?------17------son

------------Moses------14

------------Peter------12

------------Levi-------3

-----------------------------------------

------Yoder------Samuel----34------OH------Lagrange (YR233814)

------------Rhoda------18------OH

------------William-H-------9------IN

------------Topper-------7 (Jasper)

------------Clyde-------1

-------------------------------------------

------Yoder------Samuel-K------46----PA----Lagrange (YRB178)

------------Barbara------27------IN--wf

------------Menno------21------OH--son

------------Christian------16------MI--"

------------Fannie------14------IN

------------Samuel------11------"

------------Levi-------2

------------Delos-------1---------son

-------------------------------------------

------Yoder------Simon------32------IN----Lagrange (YR234455)

------------Fannie------33------PA

------------Elizabeth------15------IN

------------Jacob------10

------------Alfred-------8

------------Fannie-------4

------------Simon-------2

-------------------------------------------

------Yoder------Tobias---27------IN------Lagrange (YR234437)

------------Mary------25

------------Edward-------1

------------------------------------------

------Yoder------Tobias-D---27------PA------Lagrange (YR23374d)

------------Mary-Ann------26------IN

------------Lizzie-------6

------------Lytia?-------4

------------Corneliius-------3

------------Jeremiah-------1

-------------------------------------------

------Yoder------Valentine----38------PA----Lagrange (YR233743)

------------Mattie------35------OH

------------Kattie------14------IN

------------Christian------12

------------David------11

------------Daniel-------8

------------Sarah-------3

------------Seth------2/12

-------------------------------------------

------Yoder----Valentine----37----PA----Lagrange (YR234433)

------------Catherine------35------"

------------Lydia------17------IN

------------Gurdy------14------"---dtr

------------John------12

------------Tobias------10

------------Daniel-------7

------------Joseph-------5

------------Moses-------2

------------------------------------------

------Yoder---Valentine-C--58----PA----Lagrange (YR23447)

------------Elizabeth------57------"

------------Valentine------19------IN (YR234478)

------------Mattie------14

------------Ann------18------dtr (in law)

------Miller-------Simon------20------son-in-law

------------Clara-------1------grnd/dtr

-------------------------------------------

------Yoder------Yost-D------34------OH------Lagrange (YR23b49)

------------Sophia------31------"

------------Aurelia-------7------"

------------Carl-------5------"

------------Lizzie-V-------3------"

------------Jennie-------3------"

------------------------------------------

------Yoder------Jonathan------27------IN------LaPorte (YR239a6)

------------Mary-Jane------23------"

------Miller------Charles------15------bro-in-law

-------------------------------------------

------Yetter------Gotleib------45------Gmy,Wurtemburg------Marion

------------Martha------40------"

------------Christian------15------"

------------Fred------11------"

------------Bertha-------4------IN

-------------------------------------------

------Yoder------Daniel------45------OH------Marshall (YR12137)

------------Sarah------40------"

------------Susan------14------IN

------------Mary------13

------------John------12

------------Alvira------11

------------Jacob------10

------------Benjamin-------9

------------Aaron-------8

------------Frances-------5--f

------------Daniel-------1

-------------------------------------------

------Yoder------David----36------IN------Marshall (?YR125325)

------------Eliza-Jane------37

------------Jesse------13

------------Alice------10

------------Cora-------8

------------Nancy-------5

------------Ida-------1

-------------------------------------------

------Yoder------Henry------45------OH------Marshall (YR261211)

------------Magdalena------44------PA

------------Anna-H------10------IN

------------Henry-------7

------------Cora-------4------

-------------------------------------------

------Yoder------Jonas------49------OH------Marshall (YR1253e)

------------Annie------40------"

------------William------23------IN

------------Sarah------16------

------------Manasseh------10------(spelled-as-found)

------------Mary-------8

------------John-------8

------------Jonah-------6

-------------------------------------------

------Yoder------Samuel------40------OH----Marshall (YR125323)

------------Mary------29------"--wf

------------Matty------14------IN

------------Susan------12

------------Valentine------10

------------Frances-------8

------------Rebecca--------6

------------Mary-------4

------------Eli-------2

------------Laura------6/12------

--------------------------------------------

------Yoder------Benjamin------44------OH------Miami (YRB661)

------------Sarah------39------PA

------------Lydia------20------"

------------Samuel------17------IN

------------Mary------15

------------Gabriel------12------male

------------Benjamin-------9

------------George-------7

------------John-------6

------------Hannah-------3

------------Julia--------2

-------------------------------------------

------Yoder------Gabriel------45------OH------Miami (YR251221)

------------Emanuel------21------IN--son

------------Rebecca------19

------------Edmund------17

------------Omer------15------son

------------Calvin-------8

------------Elmer-------6

-------------------------------------------

------Yoder------Mary-------7------IN------Monroe

--------------living-with-Isaac-Brannam

-------------------------------------------------

------Yoder------Simon-B------53------PA------Montgomery

------------Francis------42------IN

------------Mary------18------"

------------James-H------16

------------John-C------14

------------Emma------12

------------Simon------10

------------Maud-------6

-------------------------------------------

------Yoder------Daniel------30------IN------Newton (YR125328)

------------Veronica------25------OH

------------Elizabeth-------7------IN

------------Benjamin-------6

------------Samuel-------5

------------Reuben-------3

------------Naomi-------1

------------Valentine------2/12------m

-------------------------------------------

------Yoder------Eli------31------IN------Newton (YR234473)

------------Barbara------32------

------------Abbey-------9

------------Sarah-------8

------------Savilla-------7

------------Lydia-------5

------------Elizabeth-------2

------------Perry------4/12

-------------------------------------------

------Yoder------Henry-S------33------OH------Newton (YR125354)

------------Sarah------28------

------------Lydia------10------IN

------------Elizabeth-------8

------------Joseph-------6

------------Sarah-------4

------------Atriness------7/12------no-relation

-------------------------------------------

------Yoder------John-T------40------PA------Newton (YR234432)

------------Anna------34------IN

------------Daniel------16------"

------------Mary------14

------------Barbara------12

------------Martha------12

------------Elizabeth------10

------------Joseph-------7

------------Annie-------5

------------Milla-------3------fem

------------John------7/12

-------------------------------------------

------Yoder------Enos------10------IN------Newton

------------Shem-------8

------------Sarah-------6------

---------------with-familly-of-Isaac-Chupp,-his-son-(?)

-------------------------------------------

------Yoder------Andrew-J------25------IN------Noble (YR127363)

------------Ellen------25------MI------

------------Amy-------3------"

-------------------------------------------

------Yoder------Henry-M------48------PA------Noble (?YB21432)

------------Susannah------34------OH

------------Harvey------10------IN

------------Jesse-------8

------------Minnie-------6

------------Mary-E-------5

------------Ira-J-------2------son

-------------------------------------------

------Yoder------Levi------38------OH------Noble (YR261322)

------------Barbra------38------PA

------------Wallace------14------IN

------------Eli------12

------------Ephraim------10

------------Ira-------8

------------Leana-------6------(spelled-as-shown)

------------Silvia-------4

-------------------------------------------

------Yoder------Simon-P------38------PA------Noble (YR162411)

------------Lydia------44------OH

------------Frank------25------IN

------------Melvin------14------"

------------Emma------11

------------Alvin-------7

-------------------------------------------

------Yoder------Cornet-H------26------IN------Ripley

------------Lydia------22

------------Lee-------3

------------Bonnie------3/12

-------------------------------------------

------Yater------Holman-J------28------IN------Ripley

------------Melissa------27------OH

------------Fulaetta-------3------IN--(spelled-as-shown)

------------Rosa-------1

-------------------------------------------

------Yater------James-S------27------IN------Ripley

------------Anna------23------"

-------------------------------------------

------Yater------John------48------IN------Ripley (T5)

------------Mary------42--

-------------------------------------------

------Yoter------Melvin------25------IN------Ripley

------------Katie------18

------------Hattie------7/12

-------------------------------------------

------Yeter------Balton------28------Gmy,-Wuert.------Spencer

------------Sophia------25------IN

------------Emma-------1

------Fuordes?---Sophia------63------Gmy,Baden

-------------------------------------------

------Yoder------Andrew------51------OH------St-Joseph (YA14)

------------Phoebe------40------IN

------------Alda-------5

------------Clyde------8/12

------------William------25------son

--------------------------------------------

------Yoder------John------44------OH------St-Joseph

------------Mahala------45------IN

------------Emma------21------"

------------Esther------19

------------Ida------17

------------Andrew------13

------------Emery------11

------------Marcus-------5

------------Millie-------5

-------------------------------------------

------Yoder------Joseph------30------OH------St-Joseph

------------Ellen------22------IN

------------William-------2

-------------------------------------------

------Yetter------Reuben------47------PA------St.Joseph

------------Catherine------45------"

------------Charles------23------"

------------Ida------15------IN

------------Leonard------12

------------Elinor------10

------------Walter-------4

-------------------------------------------

------Yeidor------Frank------40------Gmy------Tippecanoe

------------Frederika------39------"

------------Christina------15------IN

------------Mary------13

------------Godfried------11

------------Rosa-------9

------------Willie-------6

------------Lizzie-------2

------------Josie------1/12------f

----------------------------------------------

------Yeater------Andrew------27------OH------Wabash

------------Martha------23------"

------------John-------4

------------Harry-------2

-------------------------------------------

------Yoder------William------35------OH------Wabash

------------Percilla------32------IN---(spelled-as-found)

------------James------14

------------Manline------12------dtr

------------Ludlow-------2

------------Frances-------1------son

-------------------------------------------

------Yeater------William-H------26------IN------Wabash

------------Elizabeth------25------"

------------Thomas-------6

------------Christine-------3

------------Eva-------1

------------------------------------------

------Yeater------G.W.------42------OH------Whitley

------------Mary------42------"

------------Francis------18------IN

------------Almeda------14

------------Bertha------11

------------Henry-------9

------------Effie-------6

------------Rutherford-------4

------Bowser------Fanny------64------m-in-law

--------------------------------------------



Back to INDEX Back to CONTENTS

Yoder Newsletter - © Christopher K. Yoder, 1992, 1994