Search billions of records on Ancestry.com

Back to INDEX Back to CONTENTS

Yoder Census Records

Compiled by the Yoder Newsletter

CENSUS RECORDS FOR YODER FAMILIES IN OHIO-1830


These records were originally assembled in 1991 by Dorothy Yoder Coffman, 30 Grouse Road, Malvern, Pa, 19355-2208. They have been retyped from her hardcopy and are presented with her permission by the Yoder Newsletter. The Yoder Newsletter has also added the identification number for those heads of household whose identity is know. These codes relate to the family groups which have been archived elsewhere.-- Chris Yoder



"NOTES TO THE USER: No census was taken in the Northwest territory in 1790. The census records of 1800 and 1810 for Ohio were lost. So the census for all YODER families in Ohio begins in 1820. All possible spellings of this name were included to allow for human error in the hearing, spelling or transcribing of the name.
"The information contained here was taken from the printed texts, indexes and microfilm found at the branch of the national Archives in Philadelphia, Pennsylvania. The term 'printed index(s)' refers to those volumes generated by commercial or private groups, and these can be found at the National Archive branches and in many
genealogical libraries. These printed indexes contain mistakes and omissions, and the sorted indexes generated for this volume reflects these errors - just as they were found. The information in the census records is shown exactly as it appeared on the microfilm.
"Some of the microfilm used was of poor quality (especially the 1840) and often the writing was open to question. An asterisk after a given name is used to indicate doubt about the name. Every attempt was made to be as accurate in the transcribing as
possible. "Some families were found which did not appear in the printed indexes. For the 1850 and 1860 years, sons living at home over the age of 17 were added to the sorted indexes. Both of the above are noted with the sign ** at the end of the line in the
sorted indexes. In these two census years all children who were living with other families (probably orphans) appear in the printed indexes under their own name, and are included here in the same way. At the top of the sorted lists, the term "page number" refers to the census microfilm.
"The indexes for these census records have been sorted two ways -- by county and by given name to allow the researcher to locate a given person or locality quickly. --
Dorothy Yoder Coffman--1991.


SEQUENCE BY COUNTY- Total 41

First ------Last------County------Twp--------age--------page

Henry------Yetter------Colum------Beaver------20/30------362-
Peter------Yetter------Colum------Beaver------40/50------361-
William------Yeather------Colum------Fox------20/30------475-
Samuel------Yutter------Colum------Frfld------20/30------351-
John------Yeather-Colum------Salem------60/70------440-
Henry------Yoder------Haml------Miami------50/60------316-
Abraham-Yoder------Holm------Berlin------40/50------292-
Joshua------Yoder------Holm------Berlin------30/40------292-
Catherine-Yoder------Holm------Germ------30/40------263-
John-------Yader------Holm------Germ------40/50------265-
Yost------Yoder------Holm------Mech------20/30------269-
Jacob------Youger------Holm------Praire------30/40------316-
Jane---------Youger------Holm------Praire------60/70------316-
Christy-Youder------Holm------WinCr------40/50------296-
Benjamin-Yuder------Musk------Perry------30/40------311-
Catherine-Yotter------Pick------Wash------40/50------041-
Melchor------Yotter------Pick------Wash------20/30------046-
Jacob------Yeider------Rich------Jeff------30/40------02-
John-------Yeider------Rich------Jeff------60/70------02-
Joseph------Yoder------Stark------Nimi------30/40------230-
Daniel------Yothers------Stark------Paris------20/30------190-
Henry------Yager------Trum------Canf------60/70------266-
John------Yager------Trum------Canf------30/40------266-
Daniel-------Yodder------Tusc------SgrCk------50/60------077-
David------Yodder------Tusc------SgrCk------40/50------073-
John------Yodder------Tusc------SgrCk------70/80------075-
Solomon-Yodder------Tusc------SgrCk------30/40------078-
Stephen------Yodder------Tusc------SgrCk------40/50------076-
Christian-Yoder------Wayne------Green------40/50------121-
George------Yoder------Wayne------Green------40/50------122-
Isaac------Yoder------Wayne------Green------40/50------119-
Jacob------Yoder------Wayne------Green------50/60------117-
John------Yoder------Wayne------Green------30/40------122-
John-------Yoder------Wayne------Green------30/40------119-
Peter------Yoder------Wayne------Green------15/20------120-
Peter------Yoder------Wayne------Green------50/60------119-
Solomon-Yoder------Wayne------Green------50/60------118-
Yost------Yoder------Wayne------Green------20/30------118-
Daniel------Yoder------Wayne-------Wayne------30/40------107-
Jacob------Yoder------Wayne------Wayne------60/70------117-
John------Yoder------Wayne------Wayne------70/80------110-


SEQUENCE-BY-NAME-Total-41-
First-------Last------County------Twp------age------page-


Abraham-Yoder------Holm------Berlin------40/50------292-
Benjamin-Yuder------Musk------Perry------30/40------311-
Catherine-Yoder------Holm------Germ------30/40------263-
Catherine-Yotter------Pick------Wash------40/50------041-
Christian-Yoder------Wayne------Green------40/50------121-
Christy-Youder------Holm------WinCr------40/50------296-
Daniel-------Yodder------Tusc------SgrCk------50/60------077-
Daniel------Yoder------Wayne-------Wayne------30/40------107-
Daniel------Yothers------Stark------Paris------20/30------190-
David------Yodder------Tusc------SgrCk------40/50------073-
George------Yoder------Wayne------Green------40/50------122-
Henry------Yager------Trum------Canf------60/70------266-
Henry------Yetter------Colum------Beaver------20/30------362-
Henry------Yoder------Haml------Miami------50/60------316-
Isaac------Yoder------Wayne------Green------40/50------119-
Jacob------Yeider------Rich------Jeff------30/40------02-
Jacob------Yoder------Wayne------Green------50/60------117-
Jacob------Yoder------Wayne------Wayne------60/70------117-
Jacob------Youger------Holm------Praire------30/40------316-
Jane---------Youger------Holm------Praire------60/70------316-
John-------Yader------Holm------Germ------40/50------265-
John------Yager------Trum------Canf------30/40------266-
John------Yeather-Colum------Salem------60/70------440-
John-------Yeider------Rich------Jeff------60/70------02-
John------Yodder------Tusc------SgrCk------70/80------075-
John------Yoder------Wayne------Green------30/40------122-
John-------Yoder------Wayne------Green------30/40------119-
John------Yoder------Wayne------Wayne------70/80------110-
Joseph------Yoder------Stark------Nimi------30/40------230-
Joshua------Yoder------Holm------Berlin------30/40------292-
Melchor------Yotter------Pick------Wash------20/30------046-
Peter------Yetter------Colum------Beaver------40/50------361-
Peter------Yoder------Wayne------Green------15/20------120-
Peter------Yoder------Wayne------Green------50/60------119-
Samuel------Yutter------Colum------Frfld------20/30------351-
Solomon-Yodder------Tusc------SgrCk------30/40------078-
Solomon-Yoder------Wayne------Green------50/60------118-
Stephen------Yodder------Tusc------SgrCk------40/50------076-
William------Yeather------Colum------Fox------20/30------475-
Yost------Yoder------Holm------Mech------20/30------269-
Yost------Yoder------Wayne------Green------20/30------118-


Columbiana-Co.,-Fairfield-Twp,-Page-351,-Samuel-Yutter-(YB1342)-
------------------male------------female-
age-70-80-
-------60-70-
-------50-60-
-------40-50-
-------30-40-
-------20-30------------------------1-
-------15-20------------1-
-------10-15-
---------5-10-
Under-10------------1------------1-------------------
---------------------------------------------------------
Columbiana-Co.,-Beaver-Twp,-page-361,-Peter-Yetter-(YB137)-
------------------male------------female-
age-70-80-
-------60-70-
-------50-60-
-------40-50------------1-
-------30-40------------------------1-
-------20-30-
-------15-20------------1-------------
-------10-15------------1------------1-
---------5-10------------2------------1-
Under-10------------2-------
---------------------------------------------------------
Columbiana-Co,-Beaver-Twp,-Page-362,-Henry-Yetter-(?YB1323)-
------------------male------------female-
age-70-80-
-------60-70-
-------50-60-
-------40-50-
-------30-40-
-------20-30------------1------------1-
-------15-20-
-------10-15------------------------1-
---------5-10-
Under-10-------------------
---------------------------------------------------------
Columbiana-Co.,-Salem-Twp.,-Page-440,-John-Yeather-(YB134)-
------------------male------------female-
age-70-80-
-------60-70------------1-
-------50-60------------------------1-
-------40-50-
-------30-40-
-------20-30-
-------15-20------------2------------1-
-------10-15------------1-
---------5-10-
Under-10-------------------
---------------------------------------------------------
Columbiana-Co.,-Fox-Twp,-Page-475,-William-Yeather-(M21)-
------------------male------------female-
age-70-80-
-------60-70-
-------50-60-
-------40-50-
-------30-40------------------------1-
-------20-30------------1-
-------15-20-
-------10-15-
---------5-10------------2-
Under-10------------1-------
---------------------------------------------------------
Hamilton-Co.,-Miami-Twp,-Page-316,-Henry-Yoder-(BD)-
------------------male------------female-
age-70-80-
-------60-70-
-------50-60------------1-
-------40-50------------------------1-
-------30-40-
-------20-30-
-------15-20------------------------1-------
-------10-15------------1-
---------5-10------------1-
Under-10------------1------------1-------
---------------------------------------------------------
Holmes-Co.,-Walnut-Creek,-Page-296,-Christley-Youder-(YR2612)-
------------------male------------female-
age-70-80-
-------60-70-
-------50-60-
-------40-50------------1------------1(crossed-out)-
-------30-40-
-------20-30-
-------15-20------------2------------1-
-------10-15------------2------------1-
---------5-10------------------------2-
Under-10------------1------------2-------------
---------------------------------------------------------
Holmes-Co.,-German-Twp,-Page-263,-Catherine-Yoder--
------------------male------------female-
age-70-80-
-------60-70-
-------50-60-
-------40-50-
-------30-40------------------------1-
-------20-30-
-------15-20-
-------10-15-
---------5-10------------------------1-
Under-10-------------------
---------------------------------------------------------
Holmes-Co.,-German-Twp.,-Page-265,-John-Yader-(YR1211)-
------------------male------------female-
age-70-80------------------------1-
-------60-70-
-------50-60-
-------40-50------------1------------1-
-------30-40-
-------20-30-------------
-------15-20------------1------------1-
-------10-15------------------------1-
---------5-10------------------------2-
Under-10------------1-------
---------------------------------------------------------
Holmes-Co.,-Mec-Twp,-Page-269,-Yost-Yoder-(YR23331)-
------------------male------------female-
age-70-80-
-------60-70-
-------50-60-
-------40-50-
-------30-40-
-------20-30------------1-
-------15-20------------------------1-
-------10-15-
---------5-10------------1-
Under-10-------------------
---------------------------------------------------------
Holmes-Co.,-Berlin-twp,-page-292,-Abraham-Yoder-(YR2333)-
------------------male------------female-
age-70-80-
-------60-70-
-------50-60------------------------1-
-------40-50------------1-
-------30-40-
-------20-30------------1-
-------15-20------------2------------1-
-------10-15------------------------3-
---------5-10-
Under-10-------------------
---------------------------------------------------------
Holmes-Co.,-Berlin-Twp.,-page-292,-Joshua-Yoder-(YR2354)-
------------------male------------female-
age-70-80-
-------60-70-
-------50-60-
-------40-50------------------------1-
-------30-40------------1------------1-
-------20-30-
-------15-20-
-------10-15------------1------------1-
---------5-10------------1------------1-
Under-10------------2------------1-
---------------------------------------------------------
Holmes-Co.,-Prairie-Twp,-Page-316,-Jacob-Youger-
------------------male------------female-
age-70-80-
-------60-70-
-------50-60-
-------40-50-
-------30-40------------1-
-------20-30------------------------1-
-------15-20-
-------10-15-
---------5-10------------------------1-
Under-10------------2-------
---------------------------------------------------------
Holmes-Co.,-Prairie-Twp,-page-316,-Jane-Youger-
------------------male------------female-
age-70-80-
-------60-70------------------------1-
-------50-60-
-------40-50-
-------30-40------------------------1-
-------20-30------------1-
-------15-20-
-------10-15-
---------5-10-
Under-10-------------------
---------------------------------------------------------
Muskingham-Co,-Perry-twp,-Page-311,-Benjamin-Yuder--
------------------male------------female-
age-70-80-
-------60-70-
-------50-60-
-------40-50-
-------30-40------------1-
-------20-30------------------------1-
-------15-20-
-------10-15-
---------5-10------------3-
Under-10------------2-------
---------------------------------------------------------
Pickaway-Co.,-Washington-Twp,-page-41,-Catherine-Yotter-(?M5)-
------------------male------------female-
age-70-80-
-------60-70-
-------50-60-
-------40-50------------------------1-
-------30-40-
-------20-30-
-------15-20-
-------10-15-
---------5-10------------------------1-
Under-10-------------------
---------------------------------------------------------
Pickaway-Co.,-Washington-Twp,-Page-46,-Melchor-Yotter-(M31)-
------------------male------------female-
age-70-80-
-------60-70-
-------50-60-
-------40-50-
-------30-40-
-------20-30------------1------------1-
-------15-20-
-------10-15-
---------5-10-
Under-10------------1------------1-------
---------------------------------------------------------
Richland-Co.,-Jefferson-twp,-Page2,-Jacob-Yeider-
------------------male------------female-
age-70-80-
-------60-70-
-------50-60-
-------40-50-
-------30-40------------1------------1-
-------20-30-
-------15-20-
-------10-15-
---------5-10------------1-
Under-10------------------------3-
---------------------------------------------------------
Richland-Co.,-Jefferson-Twp,-Page-4,-John-Yeider-
------------------male------------female-
age-70-80-
-------60-70------------1------------1-
-------50-60-
-------40-50-
-------30-40-
-------20-30-
-------15-20-
-------10-15-
---------5-10-
Under-10-------------------
---------------------------------------------------------
Stark-Co.,-Paris-Twp,-Page-190,-Daniel-Yothers-(F6)-
------------------male------------female-
age-70-80-
-------60-70-
-------50-60-
-------40-50------------------------1-
-------30-40-
-------20-30------------1------------1-
-------15-20-
-------10-15-
---------5-10-
Under-10-------------------
---------------------------------------------------------
Stark-Co.,-Nim.-Twp,-page-230,-Joseph-Yoder-(YA1)-
------------------male------------female-
age-70-80-
-------60-70-
-------50-60-
-------40-50-
-------30-40------------1------------1-
-------20-30-
-------15-20-
-------10-15------------2-
---------5-10------------1-
Under-10------------2-------
---------------------------------------------------------
Trumbull-Co.,-Canfield-Twp,-Page-266,-Henry-Yager--
------------------male------------female-
age-70-80-
-------60-70------------1-
-------50-60------------------------1-
-------40-50-
-------30-40-
-------20-30------------2------------1-
-------15-20------------1-
-------10-15------------1-
---------5-10-
Under-10-------------------
---------------------------------------------------------
Trumbull-Co.,-Canfield-Twp,-Page-266,-John-Yager-
------------------male------------female-
age-70-80-
-------60-70-
-------50-60-
-------40-50-
-------30-40------------1------------1-
-------20-30-
-------15-20-
-------10-15-
---------5-10------------------------1-
Under-10------------------------2-
---------------------------------------------------------
Tuscarawas-Co.,-Sugar-Creek,-Page-73,-David-Yodder-(YR2341)-
------------------male------------female-
age-70-80-
-------60-70-
-------50-60-
-------40-50------------1------------1-
-------30-40-
-------20-30-
-------15-20------------2-
-------10-15------------------------1-
---------5-10------------2-
Under-10------------3-------
---------------------------------------------------------
Tuscarawas-Co.,-Sugar-Creek-Twp,-Page-75,-John-Yodder-(YR125)-
------------------male------------female-
age-70-80------------1-
-------60-70-
-------50-60-
-------40-50-
-------30-40-
-------20-30------------------------1-
-------15-20-
-------10-15-
---------5-10------------2------------1-
Under-10-------------------
---------------------------------------------------------
Tuscarawas-Co.,-Sugar-Creek-Twp,-Page--76,-Stephen-Yodder-(YR1257)-
------------------male------------female-
age-70-80-
-------60-70-
-------50-60-
-------40-50------------1------------1-
-------30-40-
-------20-30-
-------15-20------------1------------1-
-------10-15------------1------------1-
---------5-10------------1------------2-
Under-10------------------------1-------
---------------------------------------------------------
Tuscarawas-Co.,-Sugar-Creek-Twp,-Page--77,-Daniel-Yodder-(YR1253)-
------------------male------------female-
age-70-80-
-------60-70-
-------50-60------------1-
-------40-50------------------------1-
-------30-40-
-------20-30------------1------------1-
-------15-20------------1------------2-
-------10-15------------1------------1-
---------5-10------------1------------1-
Under-10------------------------1-
---------------------------------------------------------
Tuscarawas-Co.,-Sugar-Creek-Twp,-page-78,-Solomon-Yodder-(YR2338)-
------------------male------------female-
age-70-80-
-------60-70-
-------50-60-
-------40-50-
-------30-40------------1------------1-
-------20-30-
-------15-20------------------------1-
-------10-15------------3-------------
---------5-10------------------------1-
Under-10------------------------2-
---------------------------------------------------------
Wayne-Co.,-Wayne-Twp,-Page-107,-Daniel-Yoder-(YR2517)-
------------------male------------female-
age-70-80-
-------60-70-
-------50-60-
-------40-50-
-------30-40------------1-
-------20-30------------------------1-
-------15-20-
-------10-15-
---------5-10------------1------------2-
Under-10------------2------------1-
---------------------------------------------------------
Wayne-Co.,-Wayne-Twp,-Page-110,-John-Yoder-(YR251)-
------------------male------------female-
age-70-80------------1------------1-
-------60-70-
-------50-60-
-------40-50-
-------30-40------------------------1-
-------20-30-
-------15-20-
-------10-15-
---------5-10-
Under-10-------------------
---------------------------------------------------------
Wayne-Co.,-Wayne-Twp,-Page-110,-Jacob-Yoder-(YR162)-
------------------male------------female-
age-70-80-
-------60-70------------1------------1-
-------50-60-
-------40-50-
-------30-40-
-------20-30------------1-
-------15-20------------1------------1-
-------10-15-
---------5-10-
Under-10------------1-------
---------------------------------------------------------
Wayne-Co.,-Green-Twp.,-page-119,-John-Yoder-(?------)-
------------------male------------female-
age-70-80-
-------60-70-
-------50-60-
-------40-50-
-------30-40------------1------------1-
-------20-30------------1-
-------15-20-
-------10-15------------1-
---------5-10------------------------2-
Under-10-------------------
---------------------------------------------------------
Wayne-Co,-Green-Twp.,-Page-117,-Jacob-Yoder-(YR2512)-
------------------male------------female-
age-70-80-
-------60-70-
-------50-60------------1-
-------40-50------------------------1-
-------30-40-
-------20-30-
-------15-20------------1------------1-
-------10-15------------1------------2-
---------5-10------------1------------1-
Under-10------------------------1-------
---------------------------------------------------------
Wayne-Co.,-Green-Twp,-Page-118,-Yost-Yoder-(YR23b2)-
------------------male------------female-
age-70-80-
-------60-70-
-------50-60-
-------40-50-
-------30-40-
-------20-30------------1------------1-
-------15-20-
-------10-15-
---------5-10-
Under-10------------1------------1-------
---------------------------------------------------------
Wayne-Co.,-Green-Twp,-Page-118,-Solomon-Yoder-(YR23b)-
------------------male------------female-
age-70-80-
-------60-70------------------------1-
-------50-60------------1-
-------40-50-
-------30-40-
-------20-30------------------------1-
-------15-20------------1------------2-
-------10-15-
---------5-10------------1------------1-
Under-10-------------------
---------------------------------------------------------
Wayne-Co.,-Green-Twp.,-Page--119,-Peter-Yoder-(YRB6)-
------------------male------------female-
age-70-80-
-------60-70-
-------50-60------------1-
-------40-50-
-------30-40------------------------1-
-------20-30-
-------15-20------------1-
-------10-15------------1-
---------5-10------------2-
Under-10------------1------------2-------
---------------------------------------------------------
Wayne-Co.,-Green-Twp.,-page-119,-Isaac-Yoder-(YRB4)-
------------------male------------female--
age-70-80--
-------60-70--
-------50-60--
-------40-50------------1--
-------30-40------------------------1--
-------20-30--
-------15-20--
-------10-15------------------------1--
---------5-10--
Under-10--------------------
---------------------------------------------------------
Wayne-Co.,-Green-twp,-Page-120,-Peter-Yoder-(YR23b4)-
------------------male------------female--
age-70-80--
-------60-70--
-------50-60--
-------40-50--
-------30-40--
-------20-30------------------------1--
-------15-20------------1--
-------10-15--
---------5-10------------------------1--
Under-10--------------------
---------------------------------------------------------
Wayne-Co.,-Green-Twp,-Page-121,-Christian-Yoder-(?YA3)-
------------------male------------female--
age-70-80--
-------60-70--
-------50-60--
-------40-50------------1------------1--
-------30-40--
-------20-30--
-------15-20--
-------10-15--
---------5-10--
Under-10------------2--------
---------------------------------------------------------
Wayne-Co.,-Green-Twp,-Page-122,-John-Yoder-(b-Germany?f/o-Joseph)-
------------------male------------female--
age-70-80--
-------60-70--
-------50-60--
-------40-50--
-------30-40------------1--
-------20-30--
-------15-20------------------------1--
-------10-15--
---------5-10------------------------1--
Under-10------------1--------------
---------------------------------------------------------
Wayne-Co.,-Green-twp,-Page-122,-George-Yoder-(?YR1271)-
------------------male------------female--
age-70-80--
-------60-70--
-------50-60--
-------40-50------------1--
-------30-40------------------------1--
-------20-30--
-------15-20--
-------10-15------------1------------1--
---------5-10------------1------------1--
Under-10------------------------2--



Back to INDEX Back to CONTENTS

Yoder Newsletter - © Christopher K. Yoder, 1992, 1994