Search billions of records on Ancestry.com

Back to INDEX Back to CONTENTS

Yoder Census Records

Compiled by the Yoder Newsletter

CENSUS RECORDS FOR YODER FAMILIES IN OHIO-1840


These records were originally assembled in 1991 by Dorothy Yoder Coffman, 30 Grouse Road, Malvern, Pa, 19355-2208. They have been retyped from her hardcopy and are presented with her permission by the Yoder Newsletter. The Yoder Newsletter has also added the identification number for those heads of household whose identity is know. These codes relate to the family groups which have been archived elsewhere.-- Chris Yoder



"NOTES TO THE USER: No census was taken in the Northwest territory in 1790. The census records of 1800 and 1810 for Ohio were lost. So the census for all YODER families in Ohio begins in 1820. All possible spellings of this name were included to allow for human error in the hearing, spelling or transcribing of the name. "The information contained here was taken from the printed texts, indexes and microfilm found at the branch of the national Archives in Philadelphia, Pennsylvania. The term 'printed index(s)' refers to those volumes generated by commercial or private groups, and these can be found at the National Archive branches and in many
genealogical libraries. These printed indexes contain mistakes and omissions, and the sorted indexes generated for this volume reflects these errors - just as they were found. The information in the census records is shown exactly as it appeared on the microfilm. "Some of the microfilm used was of poor quality (especially the 1840) and often the writing was open to question. An asterisk after a given name is used to indicate doubt
about the name. Every attempt was made to be as accurate in the transcribing as possible.
"Some families were found which did not appear in the printed indexes. For the 1850 and 1860 years, sons living at home over the age of 17 were added to the sorted
indexes. Both of the above are noted with the sign ** at the end of the line in the sorted indexes. In these two census years all children who were living with other families (probably orphans) appear in the printed indexes under their own name, and
are included here in the same way. At the top of the sorted lists, the term "page number" refers to the census microfilm.
"The indexes for these census records have been sorted two ways -- by county and by given name to allow the researcher to locate a given person or locality quickly. --
Dorothy Yoder Coffman--1991.


OHIO-CENSUS--SORTED-BY-COUNTY--Total-87-Families-
-
first------last------County------Twp------age------Page-
-
William------Yoder------Carroll------Fox------30/40------219-
David-------Yutter------Cham------Jack------40/50------321-
Henry------Yodder------Colum------Beav------20/30------113-
Lewis------Yodder------Colum------Beav------20/30------112-
Peter------Yodder------Colum------Beav------50/60------112-
John-Jr------Yutter------Colum------Frfld------20/30------226-
David------Yoker------Colum------Knox------30/40------014-
John------Yodder------Colum------Salem------60/70------119-
Peter------Yodder------Colum------Salem------20/30------119-
Stephen------Yutton------Colum------Sprfd------30/40------189-
Nancy------Yotten------Cosh------Pike------40/50------344-
Jacob------Yieter------Craw------Libr------40/50------050-
Jacob------Yoter------Farfld------Plea------40/50------309-
Samuel------Yoder------Farfld------Plea------30/40------309-
Ignatz------Yaeger------Haml------Cinc------40/50------199-
Jacob------Yider------Hank------Eagle------40/50------022-
Chris-B------Yoder------Holm------Berl------20/30------206-
David------Yader------Holm------Berl------50/60------206-
David-------Yader------Holm------Berl------20/30------206-
Henry------Yoder------Holm------Berl------20/30------211-
Jacob-M------Yodder------Holm------Berl------20/30------208-
Jacob------Yodder------Holm------Berl------20/30------208-
Moses------Yoder------Holm------Berl------20/30------206-
Solomon-Yoodora-Holm------Berl------40/50------208-
Yost------Yodder------Holm------Berl------30/40------211-
Joel------Yadder------Holm------Germ------40/50------288-
John------Yader------Holm------Germ------50/60------244-
John------Yodder------Holm------Germ------20/30------215-
Nicholas-Yadder------Holm------Germ------60/70------288-
Stephen------Yodder------Holm------Germ------30/40------246-
Abraham-Yoder------Holm------Mech------30/40------234-
Abraham-Yoder------Holm------Mech------50/60------235-
Caleb------Yodder------Holm------Mech------40/50------233-
Eli------Yader------Holm------Mech------20/30------235-
Elias------Yader------Holm------Mech------30/40------235-
Jacob------Yoder------Holm------Mech------30/40------235-
Philip------Yarttar------Holm------Prai------50/60------225-
Charles------Yattier------Holm------Ripley------20/30------254-
Jacob------Yodder------Holm------SltCrk------60/70------212-
Christo.------Yadder------Holm------WlnCrk------50/60------294-
Jonathan-Yadder------Holm------WlnCrk------20/30------294-
Noah------Yoder------Holm------WlnCrk------40/50------296-
Yost------Yader------Holm------WlnCrk------30/40------296-
John------Yolder------Huron------Wake------40/50------324-
Isaac------Yoder------Knox------Clay------20/30------283-
Peter------Yoder------Logan------Union------60/70------029-
John------Yatter------Madis------DrCrk------20/30------019-
Sarah-------Yauters------Miami------Eliz------30/40------415-
Lewis-------Yatter------Miami------Newt------30/40------449-
Moses------Yagan------Miami------Newt------40/50------452-
James------Yagar------Miami------Stant------30/40------382-
Joseph------Yagar------Miami------Stant------20/30------382-
Jacob------Yauger------Musk------Meigs------15/20------372-
John------Yoder------Rich------Hano------40/50------063-
Elizabe------Yoger------Rich------Madis------60/70------145-
Melchoir-Yeter------Seneca------Adams------40/50------130-
Christian-Yoder------Stark------Canton------40/50------115-
Daniel------Yaders------Stark------Wash------30/40------054-
Joseph------Yader------Stark------Wash------30/40------055-
George------Yoder------Summit------Rich------50/60------275-
Daniel------Yodder------Tusc------SgrCrk------60/70------372-
Jacob------Yodder------Tusc------SgrCrk------20/30------367-
Moses------Yodder------Tusc------SgrCrk------20/30------368-
Simon------Yodder------Tusc------SgrCrk------20/30------372-
Stephen------Yodder------Tusc------SgrCrk------50/60------367-
Valentine-YodderTusc------SgrCrk------40/50------367-
Joseph------Yeater------Wash------Jolly------40/50------284-
Adam------Yeter------Wayne------Green------20/30------154-
Chistop------Yoter------Wayne------Green------60/70------158-
Daniel------Yeter------Wayne------Gren------40/50------155-
Eli------Yoter------Wayne------Green------20/30------157-
Gabriel------Yeter------Wayne-------Green------20/30------154-
Henry------Yeter------Wayne------Green------50/60------155-
Isaac------Yotes------Wayne------Green------70/80------160-
John------Yoter------Wayne------Green------40/50------155-
John------Yoter------Wayne-------Green------70/80------157-
Joanthan-Yoter------Wayne------Green------60/70------160-
Michael------Yeter------Wayne------Green------40/50------155-
Peter------Yeter------Wayne------Green------20/30------154-
Solomon-Yoter------Wayne-------Green------60/70------154-
Yost------Yeter------Wayne-------Green------40/50------155-
Eli------Yoder------Wayne------Milt------20/30------157-
Jacob------Yotter------Wayne------Milt------20/30------148-
Jacob------Yoda------Wayne------Milt------20/30------147-
Joseph------Yoter------Wayne------Milt------30/40------148-
John------Yger------Wayne------Wstr------30/40------208-
-
OHIO-CENSUS--SORTED-BY-FIRST-NAME--Total-87-Families-
-
first------last------County------Twp------age------Page-
-
Abraham-Yoder------Holm------Mech------30/40------234-
Abraham-Yoder------Holm------Mech------50/60------235-
Adam------Yeter------Wayne------Green------20/30------154-
Caleb------Yodder------Holm------Mech------40/50------233-
Charles------Yattier------Holm------Ripley------20/30------254-
Chistop------Yoter------Wayne------Green------60/70------158-
Chris-B------Yoder------Holm------Berl------20/30------206-
Christian-Yoder------Stark------Canton------40/50------115-
Christo------Yadder------Holm------WlnCrk------50/60------294-
Daniel------Yaders------Stark------Wash------30/40------054-
Daniel------Yodder------Tusc------SgrCrk------60/70------372-
Daniel------Yeter------Wayne------Gren------40/50------155-
David-------Yutter------Cham------Jack------40/50------321-
David------Yoker------Colum------Knox------30/40------014-
David------Yader------Holm------Berl------50/60------206-
David-------Yader------Holm------Berl------20/30------206-
Eli------Yader------Holm------Mech------20/30------235-
Eli------Yoter------Wayne------Green------20/30------157-
Eli------Yoder------Wayne------Milt------20/30------157-
Elias------Yader------Holm------Mech------30/40------235-
Elizabe------Yoger------Rich------Madis------60/70------145-
Gabriel------Yeter------Wayne-------Green------20/30------154-
George------Yoder------Summit------Rich------50/60------275-
Henry------Yodder------Colum------Beav------20/30------113-
Henry------Yoder------Holm------Berl------20/30------211-
Henry------Yeter------Wayne------Green------50/60------155-
Ignatz------Yaeger------Haml------Cinc------40/50------199-
Isaac------Yoder------Knox------Clay------20/30------283-
Isaac------Yotes------Wayne------Green------70/80------160-
Jacob------Yieter------Craw------Libr------40/50------050-
Jacob------Yoter------Farfld------Plea------40/50------309-
Jacob------Yider------Hank------Eagle------40/50------022-
Jacob------Yodder------Holm------Berl------20/30------208-
Jacob------Yoder------Holm------Mech------30/40------235-
Jacob------Yodder------Holm------SltCrk------60/70------212-
Jacob------Yauger------Musk------Meigs------15/20------372-
Jacob------Yodder------Tusc------SgrCrk------20/30------367-
Jacob------Yotter------Wayne------Milt------20/30------148-
Jacob------Yoda------Wayne------Milt------20/30------147-
Jacob-M------Yodder------Holm------Berl------20/30------208-
James------Yagar------Miami------Stant------30/40------382-
Joel------Yadder------Holm------Germ------40/50------288-
John------Yodder------Colum------Salem------60/70------119-
John------Yader------Holm------Germ------50/60------244-
John------Yodder------Holm------Germ------20/30------215-
John------Yolder------Huron------Wake------40/50------324-
John------Yatter------Madis------DrCrk------20/30------019-
John------Yoder------Rich------Hano------40/50------063-
John------Yoter------Wayne------Green------40/50------155-
John------Yoter------Wayne-------Green------70/80------157-
John------Yger------Wayne------Wstr------30/40------208-
John-Jr------Yutter------Colum------Frfld------20/30------226-
Jonathan-Yadder------Holm------WlnCrk------20/30------294-
Jonathan-Yoter------Wayne------Green------60/70------160-
Joseph------Yader------Stark------Wash------30/40------055--
Joseph------Yeater------Wash------Jolly------40/50------284-
Joseph------Yoter------Wayne------Milt------30/40------148-
Jospeh------Yagar------Miami------Stant------20/30------382-
Lewis------Yodder------Colum------Beav------20/30------112-
Lewis-------Yatter------Miami------Newt------30/40------449-
Melchoir-Yeter------Seneca------Adams------40/50------130-
Michael------Yeter------Wayne------Green------40/50------155-
Moses------Yoder------Holm------Berl------20/30------206-
Moses------Yagan------Miami------Newt------40/50------452-
Moses------Yodder------Tusc------SgrCrk------20/30------368-
Nancy------Yotten------Cosh------Pike------40/50------344-
Nicholas-Yadder------Holm------Germ------60/70------288-
Noah------Yoder------Holm------WlnCrk------40/50------296-
Peter------Yodder------Colum------Beav------50/60------112-
Peter------Yodder------Colum------Salem------20/30------119-
Peter------Yoder------Logan------Union------60/70------029-
Peter------Yeter------Wayne------Green------20/30------154-
Philip------Yarttar------Holm------Prai------50/60------225-
Samuel------Yoder------Farfld------Plea------30/40------309-
Sarah-------Yauters------Miami------Eliz------30/40------415-
Simon------Yodder------Tusc------SgrCrk------20/30------372-
Solomon-Yoodora-Holm------Berl------40/50------208-
Solomon-Yoter------Wayne-------Green------60/70------154-
Stephen------Yutton------Colum------Sprfd------30/40------189-
Stephen------Yodder------Holm------Germ------30/40------246-
Stephen------Yodder------Tusc------SgrCrk------50/60------367-
Valentine-Yodder-Tusc------SgrCrk------40/50------367-
William------Yoder------Carroll------Fox------30/40------219-
Yost------Yodder------Holm------Berl------30/40------211-
Yost------Yader------Holm------WlnCrk------30/40------296-
Yost------Yeter------Wayne-------Green------40/50------155-


Carroll-Co.,-Fox-Twp,-Page-219,-William-Yoder-(M21)-
------------------male------------female-
age-70-80------------------------1-
-------60-70-------------
-------50-60-------------------------
-------40-50------------------------1-
-------30-40------------1-
-------20-30------------1-
-------15-20------------2-
-------10-15------------2-
---------5-10------------1-
Under-10-------------------
---------------------------------------------------------
Champaign-Co.,-Jackson-Twp,-Page-321,-David-Yutter-
------------------male------------female-
age-70-80-
-------60-70-------------
-------50-60-------------------------
-------40-50------------1-
-------30-40------------------------1-
-------20-30-
-------15-20-------------
-------10-15-------------
---------5-10------------1------------1-
Under-10------------1------------3-
---------------------------------------------------
Columbiana-Co.,-Beaver-Twp,-Page-112,-Lewis-Yodder-(YB1371)-
------------------male------------female-
age-70-80-
-------60-70-------------
-------50-60-------------------------
-------40-50-
-------30-40-
-------20-30------------1------------1-
-------15-20-------------
-------10-15-------------
---------5-10-
Under-10------------------------1-
---------------------------------------------------
Columbiana-Co.,-Beaver-Twp.,-Page-112,-Peter-Yodder-(YB137)-
------------------male------------female-
age-70-80-
-------60-70-------------
-------50-60------------1-------
-------40-50------------------------1-
-------30-40-
-------20-30------------1-
-------15-20------------1------------1-
-------10-15------------2-
---------5-10-
Under-10-------------------
---------------------------------------------------
Columbiana-Co.,-Beaver-Twp.,-Page-113,-Henry-Yodder-(s/o-YB132)-
------------------male------------female-
age-70-80-
-------60-70-------------
-------50-60-------------------------
-------40-50-
-------30-40-
-------20-30------------1------------1-
-------15-20-------------
-------10-15-------------
---------5-10------------1------------1-
Under-10------------1------------1-
---------------------------------------------------
Columbiana-Co.,-Fairfield-Twp.,-Page-226,-John-Yutter-Jr.-(YB1345)-
------------------male------------female-
age-70-80-
-------60-70-------------
-------50-60-------------------------
-------40-50-
-------30-40-
-------20-30------------1------------1-
-------15-20-------------
-------10-15-------------
---------5-10-
Under-10------------1------------1-
---------------------------------------------------
Columbiana-Co.,-Salem-Twp.,-Page-119,-John-Yodder-(YB134)-
------------------male------------female-
age-70-80-
-------60-70------------1------------1-
-------50-60-------------------------
-------40-50-
-------30-40-
-------20-30------------1-
-------15-20-------------
-------10-15-------------
---------5-10------------------------1-
Under-10-------------------
---------------------------------------------------
Columbiana-Co.,-Salem-Twp,-page-119,-Peter-Yodder-(YB1347)-
------------------male------------female-
age-70-80-
-------60-70-------------
-------50-60-------------------------
-------40-50-
-------30-40-
-------20-30------------1------------1-
-------15-20-------------
-------10-15-------------
---------5-10-
Under-10------------1-
---------------------------------------------------
Columbiana-Co.,-Sprigfield-Twp.,-Page-188,-Stephen-Yutton-
------------------male------------female-
age-70-80-
-------60-70-------------
-------50-60-------------------------
-------40-50-
-------30-40------------1-
-------20-30------------------------1-
-------15-20-------------
-------10-15-------------
---------5-10-
Under-10-------------------
---------------------------------------------------
Columbiana-Co.,-Knox-Twp.,-Page-014,-David-Yoder-
------------------male------------female-
age-70-80-
-------60-70-------------
-------50-60-------------------------
-------40-50-
-------30-40------------1------------1-
-------20-30-
-------15-20-------------
-------10-15-------------
---------5-10------------2------------1-
Under-10------------------------1-
---------------------------------------------------
Crawford-Co.,-Liberty-Co.,-Page-050,-Jacob-Yeiter--
------------------male------------female-
age-70-80-
-------60-70-------------
-------50-60-------------------------
-------40-50------------1-
-------30-40------------------------1-
-------20-30-
-------15-20-------------
-------10-15------------1------------1-------
---------5-10------------2------------2-
Under-10------------1------------1-
---------------------------------------------------
Coshockton-Co.,-Pike-Twp,-Page-344,-Nancy-Yotten-
------------------male------------female-
age-70-80-
-------60-70-------------
-------50-60-------------------------
-------40-50------------------------1-
-------30-40-
-------20-30------------1-
-------15-20------------------------3-
-------10-15------------2------------1-
---------5-10------------1-
Under-10------------1-------
---------------------------------------------------
Fairfield-Co.,-Pleasant-twp,-Page-309,-Jacob-Yoter-(YR1464)-
------------------male------------female-
age-70-80-
-------60-70-------------
-------50-60-------------------------
-------40-50------------1------------1-
-------30-40-
-------20-30------------1-
-------15-20------------2------------1-
-------10-15------------2-
---------5-10------------1------------1-
Under-10------------1------------1-
---------------------------------------------------
Fairfield-Co.,-Plesant-Twp.,-Page-309,-Samuel-Yoder-(?YR12732)-
------------------male------------female-
age-70-80-
-------60-70-------------
-------50-60-------------------------
-------40-50-
-------30-40------------1------------1-
-------20-30-
-------15-20-------------
-------10-15------------1-
---------5-10-
Under-10------------1-------
---------------------------------------------------
Hamilton-Co.,-Cincinnatti,-Page-199,-Ignatz-Yeager--
------------------male------------female-
age-70-80-
-------60-70-------------
-------50-60-------------------------
-------40-50------------1------------1-
-------30-40-
-------20-30------------2-
-------15-20------------1-
-------10-15-------------
---------5-10-
Under-10-------------------
---------------------------------------------------
Hancock-Co.,-Eagle-Twp,-Page-022,-Jacob-Yider-
------------------male------------female-
age-70-80-
-------60-70------------1-------
-------50-60-------------------------
-------40-50------------1------------1-
-------30-40-------------
-------20-30-
-------15-20------------1------------2-
-------10-15------------------------2-
---------5-10------------1------------1-
Under-10------------------------1-
---------------------------------------------------
Holmes-Co.,-Berlin-Co.,-page-206,-David-Yader-(YR2341)-
------------------male------------female-
age-70-80-
-------60-70-------------
-------50-60------------1------------1-------------------
-------40-50-
-------30-40-
-------20-30------------------------1-
-------15-20-------------
-------10-15-------------
---------5-10-
Under-10-------------------
---------------------------------------------------
Holmes-Co.,-Berlin-Twp.,-Page-206,-David-Yader-(YR23416)-
------------------male------------female-
age-70-80-
-------60-70-------------
-------50-60-------------------------
-------40-50-
-------30-40-
-------20-30------------1------------1-
-------15-20-------------
-------10-15------------1-
---------5-10-
Under-10------------------------1-------
---------------------------------------------------
Holmes-Co.,-Berlin-Twp,-page-208,-Jacob-Yodder-(YR23383)-
------------------male------------female-
age-70-80-
-------60-70-------------
-------50-60-------------------------
-------40-50-
-------30-40-
-------20-30------------1------------1-
-------15-20-------------
-------10-15-------------
---------5-10-
Under-10------------------------1-
---------------------------------------------------
Holmes-Co.,-Berlin-Twp.,-page-208,-Jacob-M.-Yodder-(YR234b)-
------------------male------------female-
age-70-80-
-------60-70-------------
-------50-60-------------------------
-------40-50-
-------30-40-
-------20-30------------1------------1-
-------15-20------------1------------1-
-------10-15-------------
---------5-10------------1-
Under-10------------1------------1-
---------------------------------------------------
Holmes-Co.,-Berlin-Twp.,-Page-206,-Moses-Yoder-(YR23381)-
------------------male------------female-
age-70-80-
-------60-70-------------
-------50-60-------------------------
-------40-50-
-------30-40-
-------20-30------------1------------1-
-------15-20-------------
-------10-15-------------
---------5-10-
Under-10------------1-------
---------------------------------------------------
Holmes-Co.,-Berlin-Twp,-page-211,-Yost-Yader-(YR26121)-
------------------male------------female-
age-70-80-
-------60-70-------------
-------50-60-------------------------
-------40-50-
-------30-40-
-------20-30-
-------15-20-------------
-------10-15-------------
---------5-10-
Under-10-------------------
---------------------------------------------------
Holmes-Co.,-Berlin-Twp.,-Page-208,-Solomon-Yoodora-(YR2338)-
------------------male------------female-
age-70-80-
-------60-70-------------
-------50-60-------------------------
-------40-50------------1------------1-
-------30-40-
-------20-30------------------------1-
-------15-20------------------------2-
-------10-15------------------------1-
---------5-10------------2-
Under-10------------1-------
---------------------------------------------------
Holmes-Co.,-Berlin-Twp.,-page-211,-Henry-Yoder-(YR26122)-
------------------male------------female-
age-70-80-
-------60-70-------------
-------50-60-------------------------
-------40-50-
-------30-40-
-------20-30------------1------------1-
-------15-20-------------
-------10-15------------------------1-
---------5-10-
Under-10------------1------------1-
---------------------------------------------------
Holmes-Co.,-Berlin-Twp.,-Page-206,-Chris-B.-Yoder-(YR23415)-
------------------male------------female-
age-70-80-
-------60-70-------------
-------50-60-------------------------
-------40-50-
-------30-40------------------------1-
-------20-30------------1-
-------15-20------------1-
-------10-15-------------
---------5-10-
Under-10-------------------
---------------------------------------------------
Holmes-Co.,-German-Twp.,-Page-246,-Stephen-Yodder-(YR26111)-
------------------male------------female-
age-70-80-
-------60-70-------------
-------50-60-------------------------
-------40-50-
-------30-40------------1------------1-
-------20-30-
-------15-20------------------------1-
-------10-15------------------------1-
---------5-10------------------------1-
Under-10------------1-------
---------------------------------------------------
Holmes-Co.,-German-Twp.,-page-215,-John-Yodder--
------------------male------------female-
age-70-80-
-------60-70------------------------1-
-------50-60-------------------------
-------40-50-
-------30-40-
-------20-30------------1-
-------15-20-------------
-------10-15-------------
---------5-10-
Under-10------------1-------------
---------------------------------------------------
Holmes-Co.,-German-Twp.,-Page-244,-John-Yader-(YR1211)-
------------------male------------female-
age-70-80-
-------60-70-------------
-------50-60------------1------------1-------------------------
-------40-50-
-------30-40-
-------20-30------------1------------1-
-------15-20------------------------1-
-------10-15------------1-
---------5-10------------------------1-
Under-10-------------------
---------------------------------------------------
Holmes-Co.,-Hardy-Twp.,-Page-288,-Joel-Yadder-(YR2357)-
------------------male------------female-
age-70-80-
-------60-70-------------
-------50-60-------------------------
-------40-50------------1-
-------30-40------------------------1-
-------20-30-
-------15-20-------------
-------10-15------------------------1-
---------5-10------------1-
Under-10------------1-------
---------------------------------------------------
Holmes-Co.,-Hardy-Twp.,-Page-288,-Nicholas-Yadder-(YR1425)-
------------------male------------female-
age-70-80-
-------60-70------------1-
-------50-60-------------------------
-------40-50-
-------30-40------------------------1-
-------20-30------------1-
-------15-20------------1-
-------10-15------------------------1-
---------5-10------------------------1-
Under-10------------1------------2-
---------------------------------------------------
Holmes-Co.,-Mechanic-Twp.,-Page-235,-Elias-Yader-(YR12531)-
------------------male------------female-
age-70-80-
-------60-70-------------
-------50-60-------------------------
-------40-50-
-------30-40------------1------------1-
-------20-30-
-------15-20-------------
-------10-15-------------
---------5-10------------1------------1-
Under-10------------------------2-
---------------------------------------------------
Holmes-Co.,-Mechanic-Twp.,-Page-233,-Caleb-Yodder-(YR2356)-
------------------male------------female-
age-70-80-
-------60-70-------------
-------50-60-------------------------
-------40-50------------1------------1-
-------30-40-
-------20-30------------------------1-
-------15-20------------------------1-
-------10-15------------2------------1-
---------5-10------------1-
Under-10------------2-------
---------------------------------------------------
Holmes-Co.,-Mechanic-Twp.,-Page-235,-Eli-Yader-(YR23337)-
------------------male------------female-
age-70-80-
-------60-70-------------
-------50-60-------------------------
-------40-50-
-------30-40------------------------1-
-------20-30------------1-
-------15-20-------------
-------10-15-------------
---------5-10-
Under-10------------------------1-
---------------------------------------------------
Holmes-Co.,-Mechanic-Twp.,-Page-235,-Jacob-Yoder-(YR23333)-
------------------male------------female-
age-70-80-
-------60-70-------------
-------50-60-------------------------
-------40-50-
-------30-40------------1-
-------20-30------------------------1-
-------15-20-------------
-------10-15-------------
---------5-10------------1------------1-
Under-10------------------------1-
---------------------------------------------------
Holmes-Co.,-Mechanic-Twp.,-page-235,-Abraham-Yoder-(YR2333)-
------------------male------------female-
age-70-80-
-------60-70------------------------1-
-------50-60------------1-------------------
-------40-50-
-------30-40-
-------20-30------------------------1-
-------15-20-------------
-------10-15-------------
---------5-10-
Under-10-------------------
---------------------------------------------------
Holmes-Co.,-Prairie-Twp,-Page-225,-Philip-Yarttar-
------------------male------------female-
age-70-80-
-------60-70------------------------1-
-------50-60------------1-------------------
-------40-50-
-------30-40-
-------20-30------------------------1-
-------15-20-------------
-------10-15------------1------------1-
---------5-10-
Under-10-------------------
---------------------------------------------------
Holmes-Co.,-Ripley-Twp.,-Page-254,-Charles-Yattier-
------------------male------------female-
age-70-80-
-------60-70-------------
-------50-60-------------------------
-------40-50-
-------30-40-
-------20-30------------1------------1-
-------15-20-------------
-------10-15-------------
---------5-10-
Under-10------------1------------1-------
---------------------------------------------------
Holmes-Co.,-Salt-Creek-Twp,-Page-212,-Jacob-Yodder-(YR1423)-
------------------male------------female-
age-70-80-
-------60-70------------1-
-------50-60------------------------1-------------
-------40-50-
-------30-40------------------------1-
-------20-30------------2------------1-------
-------15-20------------1-
-------10-15-------------
---------5-10-
Under-10-------------------
---------------------------------------------------
Holmes-Co.,-Walnut-Creek-Twp,-Page-296,-Yost-Yodder-(YR23331)-
------------------male------------female-
age-70-80-------
-------60-70-------------
-------50-60-------------------------
-------40-50-
-------30-40------------1-
-------20-30------------------------1-
-------15-20-------------
-------10-15-------------
---------5-10------------------------2-
Under-10------------1------------2-
---------------------------------------------------
Holmes-Co.,-Walnut-Creek-Twp,-Page-296,-Noah-Yadder--
------------------male------------female-
age-70-80-
-------60-70-------------
-------50-60-------------------------
-------40-50------------1-
-------30-40-
-------20-30------------------------1-
-------15-20-------------
-------10-15-------------
---------5-10-
Under-10------------1------------1-
---------------------------------------------------
Holmes-Co.,-Walnut-Creek-Twp.,Page-294,-Jonathan-Yadder-(?YR26125)-
------------------male------------female-
age-70-80-
-------60-70-------------
-------50-60-------------------------
-------40-50-
-------30-40-
-------20-30-
-------15-20-------------
-------10-15-------------
---------5-10-
Under-10-------------------
---------------------------------------------------
Holmes-Co.,-Walnut-Creek-Twp,-Page-294,-Christopher-Yadder-(?YR2612)-
------------------male------------female-
age-70-80-
-------60-70-------------
-------50-60------------1-------------------
-------40-50------------------------1-
-------30-40-
-------20-30------------2-
-------15-20------------------------2-
-------10-15------------1-
---------5-10------------------------1-
Under-10-------------------
---------------------------------------------------
Holmes-Co.,-Mechanic-Twp,-Page-234,-Abraham-Yoder-(?YR23332)-
------------------male------------female-
age-70-80-
-------60-70-------------
-------50-60-------------------------
-------40-50-
-------30-40------------1-
-------20-30------------1------------1-
-------15-20-------------
-------10-15------------1-
---------5-10------------------------1-
Under-10-------------------
---------------------------------------------------
Huron-Co.,-Wakeman-Twp.,-Page-324,-John-Yolder--
------------------male------------female-
age-70-80-
-------60-70-------------
-------50-60-------------------------
-------40-50------------1------------1-
-------30-40-
-------20-30-
-------15-20------------2------------1-
-------10-15------------2------------1-
---------5-10------------------------2-
Under-10------------------------2-
---------------------------------------------------
Knox-Co.,-Clay-Twp.,-page-283,-Isaac-Yoder--
------------------male------------female-
age-70-80-
-------60-70-------------
-------50-60-------------------------
-------40-50-
-------30-40-
-------20-30------------1------------1-
-------15-20-------------
-------10-15------------1-
---------5-10-
Under-10------------2------------1-
---------------------------------------------------
Logan-Co.,-Union-Twp,-Page-029,-Peter-Yoder-(YRB6)-
------------------male------------female-
age-70-80-
-------60-70------------1-
-------50-60-------------------------
-------40-50------------------------1-
-------30-40-
-------20-30------------1-
-------15-20------------2------------1-
-------10-15------------1------------1-
---------5-10------------1------------1-
Under-10-------------------
---------------------------------------------------
Madison-Co.,-Deer-Creek-Twp.,-Page-019,-John-Yatter-
------------------male------------female-
age-70-80------------------------1-
-------60-70-------------
-------50-60-------------------------
-------40-50-
-------30-40------------------------1-
-------20-30------------2-
-------15-20-------------
-------10-15-------------------------
---------5-10------------------------1-
Under-10------------------------1-
---------------------------------------------------
Miami-Co.,-Elizabeth-twp.,-Page-415,-Sarah-Yauters-
------------------male------------female-
age-70-80-
-------60-70-------------
-------50-60-------------------------
-------40-50-
-------30-40------------------------1-
-------20-30-
-------15-20-------------
-------10-15------------2------------2-
---------5-10------------1-
Under-10------------1------------1-
---------------------------------------------------
Miami-Co.,-Newton-Twp.,-page-449,-Lewis-Yatter-------
------------------male------------female-
age-70-80-
-------60-70-------------
-------50-60-------------------------
-------40-50-
-------30-40------------1------------1-
-------20-30-------------------------
-------15-20-------------
-------10-15------------1------------2-
---------5-10------------1-
Under-10------------2------------1-------
---------------------------------------------------
Miami-Co.,-Newton-Twp,-page-452,-Moses-Yagan-
------------------male------------female-
age-70-80-
-------60-70-------------
-------50-60-------------------------
-------40-50------------1------------1-
-------30-40-
-------20-30------------1-
-------15-20------------1------------2-
-------10-15------------1-
---------5-10------------1-
Under-10------------1-------
---------------------------------------------------
Miami-Co.,-Stanton-Twp,-Page-382,-Joseph-Yager-
------------------male------------female-
age-70-80-
-------60-70-------------
-------50-60-------------------------
-------40-50-
-------30-40-
-------20-30------------1-
-------15-20------------------------1-
-------10-15-------------
---------5-10-
Under-10------------1-------
---------------------------------------------------
Miami-Co.,-Stanton-Twp.,-page-382,-James-Yagar-
------------------male------------female-
age-70-80-
-------60-70-------------
-------50-60-------------------------
-------40-50-
-------30-40------------1-
-------20-30------------------------1-
-------15-20-------------------
-------10-15------------------------2-
---------5-10------------------------2-
Under-10------------1------------2-------
---------------------------------------------------
Muskingum-Co.,-Meigs-Co.,-Page-372,-Jacob-Yauger-
------------------male------------female-
age-70-80------------------------1-
-------60-70-------------
-------50-60-------------------------
-------40-50-
-------30-40-
-------20-30-
-------15-20------------1-------
-------10-15-------------
---------5-10-
Under-10-------------------
---------------------------------------------------
Richland-Co.,-Madison-Twp.,-page-145,-Elizabeth-Yerder-
------------------male------------female-
age-70-80-
-------60-70------------------------1-
-------50-60-------------------------
-------40-50-
-------30-40-
-------20-30------------1-
-------15-20-------------
-------10-15-------------
---------5-10-
Under-10-------------------
---------------------------------------------------
Richland-Co.,-Hanover-Twp.,-Page-063,-John-Yoger-
------------------male------------female-
age-70-80-
-------60-70-------------
-------50-60-------------------------
-------40-50------------1-
-------30-40------------------------1-
-------20-30-
-------15-20------------2-
-------10-15------------------------1-
---------5-10------------1------------1-
Under-10------------1-------
---------------------------------------------------
Seneca-Co.,-Adams-Co.,-Page-130,-Melchoir-Yeter-(M31)-
------------------male------------female-
age-70-80-
-------60-70-------------
-------50-60-------------------------
-------40-50------------1-
-------30-40------------------------1-
-------20-30-
-------15-20-------------
-------10-15------------1------------1-
---------5-10------------1------------1-
Under-10------------1-------
---------------------------------------------------
Stark-Co.,-Canton-Twp,-Page-115,-Christian-Yoder-(YR1256)-
------------------male------------female-
age-70-80-
-------60-70-------------
-------50-60-------------------------
-------40-50------------1-
-------30-40------------------------1-
-------20-30------------1-
-------15-20-------------
-------10-15------------1-
---------5-10-
Under-10------------------------1-
---------------------------------------------------
Stark-Co.,-Washington-Twp,-Page-054,-Daniel-Yaders--(?F6)-
------------------male------------female-
age-70-80-
-------60-70-------------
-------50-60-------------------------
-------40-50-
-------30-40------------1------------1-
-------20-30-
-------15-20-------------
-------10-15------------1-
---------5-10-
Under-10-------------------
---------------------------------------------------
Stark-Co.,-Washington-Twp,-Page-055,-Joseph-Yader-(YA5)-
------------------male------------female-
age-70-80-
-------60-70-------------
-------50-60-------------------------
-------40-50-
-------30-40------------1-
-------20-30------------------------1-
-------15-20-------------
-------10-15-------------
---------5-10------------1------------2-
Under-10------------2-------
---------------------------------------------------
Summit-Co.,-Richfield-Twp,-page-275,-George-Yoder-(?YR1271)-
------------------male------------female-
age-70-80-
-------60-70-------------
-------50-60------------1-------------------
-------40-50------------------------1-
-------30-40-
-------20-30-
-------15-20------------1-
-------10-15------------------------2-
---------5-10------------1------------1-
Under-10------------------------1-
---------------------------------------------------
Tuscarawas-Co.,-Sugar-Creek-Twp.,-Page-367,-Stephen-Yodder-(YR1257)-
------------------male------------female-
age-70-80-
-------60-70-------------
-------50-60-------------------------
-------40-50-
-------30-40------------------------1-------
-------20-30------------1------------1-
-------15-20-------------
-------10-15------------1-
---------5-10------------1------------1-
Under-10------------1------------2-------
---------------------------------------------------
Tuscarawas-Co.,-Sugar-Creek-Twp,-Page-367,-Jacob-Yodder-
------------------male------------female-
age-70-80-
-------60-70-------------
-------50-60-------------------------
-------40-50-
-------30-40-
-------20-30------------1------------1-
-------15-20-------------
-------10-15------------1------------1-
---------5-10-
Under-10------------1-------
---------------------------------------------------
Tuscarawas-Co,-Sugar-Creek-Twp,-Page-372,-Simon-Yodder-(YR12535)-
------------------male------------female-
age-70-80-
-------60-70------------1-
-------50-60-------------------------
-------40-50------------------------1-
-------30-40-
-------20-30------------1-
-------15-20------------1------------1-
-------10-15------------------------1-
---------5-10------------1-
Under-10-------------------
---------------------------------------------------
Tuscarawas-Co.,-Sugar-Creek-Twp.,-Page-372,-Daniel-Yodder-(YR1253)-
------------------male------------female-
age-70-80-
-------60-70-------------
-------50-60-------------------------
-------40-50------------1-
-------30-40------------1------------1-
-------20-30-
-------15-20------------------------1-
-------10-15-------------
---------5-10------------------------3-
Under-10------------2-------
---------------------------------------------------
Tuscarawas-Co.,-Sugar-Creek-Twp.,-Page-367,-Valentine-Yodder-
------------------male------------female-
age-70-80-
-------60-70-------------
-------50-60-------------------------
-------40-50-
-------30-40-
-------20-30------------1------------1-
-------15-20-------------
-------10-15------------------------1-
---------5-10------------2-
Under-10------------2-------
---------------------------------------------------
Tuscarawas-Co.,-Sugar-Creek-Twp.,-Page-368,-Moses-Yodder-
------------------male------------female-
age-70-80-
-------60-70-------------
-------50-60-------------------------
-------40-50-
-------30-40------------no-data-
-------20-30-
-------15-20-------------
-------10-15-------------
---------5-10-
Under-10-------------------
---------------------------------------------------
Washington-Co.,-Jolly-Twp.,-Page-284,-Joseph-Yeater-
------------------male------------female-
age-70-80-
-------60-70-------------
-------50-60------------1-------------------
-------40-50-
-------30-40-
-------20-30------------------------1-
-------15-20-------------
-------10-15-------------
---------5-10------------1-
Under-10------------2------------1-
---------------------------------------------------
Wayne-Co.,-Green-twp,-Page-155,-John-Yoter-(see-1850-p194)-
------------------male------------female-
age-70-80-
-------60-70-------------
-------50-60-------------------------
-------40-50------------1-
-------30-40------------------------1-
-------20-30-
-------15-20------------1------------1-
-------10-15------------------------1-------
---------5-10-------
Under-10-------------------
---------------------------------------------------
Wayne-Co.,-Green-Twp.,-page-152,-John-Yoter--
------------------male------------female-
age-70-80-
-------60-70-------------
-------50-60-------------------------
-------40-50-
-------30-40-
-------20-30------------1------------1-
-------15-20-------------
-------10-15-------------
---------5-10-
Under-10------------------------1-
---------------------------------------------------
Wayne-Co.,-Green-Twp.,-Page-160,-Jonathan-Yoter-
------------------male------------female-
age-70-80-
-------60-70------------1-------
-------50-60-------------------------
-------40-50-
-------30-40------------1-
-------20-30------------------------1-
-------15-20-------------
-------10-15-------------
---------5-10-
Under-10------------1------------1-
---------------------------------------------------
Wayne-Co.,-Green-Twp.,-Page-157,-John-Yoter-(YR251)-
------------------male------------female-
age-70-80------------1-
-------60-70-------------
-------50-60-------------------------
-------40-50------------------------1-
-------30-40-
-------20-30-
-------15-20-------------
-------10-15------------1-
---------5-10-
Under-10-------------------
---------------------------------------------------
Wayne-Co.,-Green-Twp.,-Page-160,-Isaac-Yotes-(YB4)-
------------------male------------female-
age-70-80------------1-
-------60-70-------------
-------50-60-------------------------
-------40-50------------------------1-
-------30-40-
-------20-30------------------------1-
-------15-20-------------
-------10-15-------------
---------5-10-
Under-10-------------------
---------------------------------------------------
Wayne-Co.,-Green-Twp.,-Page-154,-Solomon-Yoter-(YR23b)-
------------------male------------female-
age-70-80-
-------60-70------------1------------1-------
-------50-60-------------------------
-------40-50-
-------30-40-
-------20-30-
-------15-20-------------
-------10-15-------------
---------5-10-
Under-10-------------------
---------------------------------------------------
Wayne-Co.,-Green-Twp.,-Page-154,-Peter-Yeter-(YR23b4)-
------------------male------------female-
age-70-80-
-------60-70-------------
-------50-60-------------------------
-------40-50-
-------30-40-
-------20-30------------1------------1-
-------15-20-------------
-------10-15------------------------1-
---------5-10------------2------------1-
Under-10------------1------------1-
---------------------------------------------------
Wayne-Co.,-Green-Twp.,-Page-157,-Eli-Yoter-(?YR261321)-
------------------male------------female-
age-70-80-
-------60-70-------------
-------50-60-------------------------
-------40-50-
-------30-40-
-------20-30------------1------------1-
-------15-20-------------
-------10-15-------------
---------5-10-
Under-10------------------------1-
---------------------------------------------------
Wayne-Co.,-Green-Twp.,-Page-155,-Henry-Yeter-(YR2613)-
------------------male------------female-
age-70-80-
-------60-70-------------
-------50-60------------1------------1-------------------
-------40-50-
-------30-40-
-------20-30-
-------15-20------------1------------1-------
-------10-15------------1------------1-
---------5-10-
Under-10-------------------
---------------------------------------------------
Wayne-Co.,-Green-Twp.,-Page-155,-Michael-Yeter-(YR1626)-
------------------male------------female-
age-70-80-
-------60-70-------------
-------50-60-------------------------
-------40-50------------1------------1-
-------30-40-
-------20-30------------1-
-------15-20------------------------1-
-------10-15------------1-
---------5-10------------1------------1-
Under-10------------2-------
---------------------------------------------------
Wayne-Co.,-Green-Twp.,-Page-155,-Yost-Yeter-(YR23b2)-
------------------male------------female-
age-70-80-
-------60-70-------------
-------50-60-------------------------
-------40-50------------1-
-------30-40------------------------1-
-------20-30-
-------15-20-------------
-------10-15------------------------1-
---------5-10------------3-
Under-10------------1-------
---------------------------------------------------
Wayne-Co.,-Green-Twp.,-Page-154,-G-(abriel?)-Yeter-(YR12573)-
------------------male------------female-
age-70-80-
-------60-70-------------
-------50-60-------------------------
-------40-50-
-------30-40-
-------20-30------------1------------1-
-------15-20-------------
-------10-15-------------
---------5-10------------1-
Under-10-------------------
---------------------------------------------------
Wayne-Co.,-Green-Twp.,-Page-158,-Christopher-Yoter-(YA3)-
------------------male------------female-
age-70-80-
-------60-70------------1-------
-------50-60------------------------1-------
-------40-50------------1------------1-
-------30-40-
-------20-30-
-------15-20-------------
-------10-15------------2-
---------5-10-
Under-10-------------------
---------------------------------------------------
Wayne-Co.,-Green-Twp.,-Page-154,-Adam-Yeter-(?YR23b8)-
------------------male------------female-
age-70-80-
-------60-70-------------
-------50-60-------------------------
-------40-50-
-------30-40-
-------20-30------------1------------1-
-------15-20-------------
-------10-15-------------
---------5-10-
Under-10------------1-------
---------------------------------------------------
Wayne-Co.,-Milton-Twp.,-Page-148,-Eli-Yoder-(YR12562)-
------------------male------------female-
age-70-80-
-------60-70-------------
-------50-60-------------------------
-------40-50-
-------30-40-
-------20-30------------1------------1-
-------15-20-------------
-------10-15-------------
---------5-10-
Under-10-------------------
---------------------------------------------------
Wayne-Co.,-Milton-Twp.,-Page-148,-Jacob-Yotter-
------------------male------------female-
age-70-80-
-------60-70-------------
-------50-60-------------------------
-------40-50-
-------30-40-
-------20-30------------1-
-------15-20------------------------1-
-------10-15-------------
---------5-10-
Under-10-------------------
---------------------------------------------------
Wayne-Co.,-Milton-Twp.,-page-148,-Joseph-Yoter-(YR23b3)-
------------------male------------female-
age-70-80-
-------60-70-------------
-------50-60-------------------------
-------40-50-
-------30-40------------1-
-------20-30------------------------1-
-------15-20------------1-
-------10-15-------------
---------5-10------------1-
Under-10------------1------------2-------
---------------------------------------------------
Wayne-Co.,-Milton-Twp.,-Page-147,-Jacob-Yoda-
------------------male------------female-
age-70-80-
-------60-70-------------
-------50-60-------------------------
-------40-50-
-------30-40-------------
-------20-30------------1------------1-
-------15-20-------------
-------10-15------------1-
---------5-10-
Under-10------------1------------1-
---------------------------------------------------
Wayne-Co.,-Wooster,-page-208,-John-Yger-
------------------male------------female-
age-70-80-
-------60-70-------------
-------50-60-------------------------
-------40-50-
-------30-40------------1-
-------20-30------------------------1-
-------15-20------------1-
-------10-15-------------
---------5-10------------------------1-
Under-10------------2-------------------



Back to INDEX Back to CONTENTS

Yoder Newsletter - © Christopher K. Yoder, 1992, 1994