Search billions of records on Ancestry.com

Back to INDEX Back to CONTENTS

Yoder Census Records

Compiled by the Yoder Newsletter

CENSUS RECORDS FOR YODER FAMILIES IN PENNSYLVANIA-1810


These records were originally assembled in 1991 by Dorothy Yoder Coffman, 30 Grouse Road, Malvern, Pa, 19355-2208. They have been retyped from her hardcopy and are presented with her permission by the Yoder Newsletter. The Yoder Newsletter has also added the identification number for those heads of household whose identity is know. These codes relate to the family groups which have been archived elsewhere.--
Chris Yoder
*********************************************************************
"NOTES TO THE USER: All possible spellings of this name were included to allow for human error in the hearing, spelling or transcribing of the name."The information contained here was taken from the printed texts, indexes and microfilm found at the branch of the national Archives in Philadelphia, Pennsylvania.
The term 'printed index(s)' refers to those volumes generated by commercial or private groups, and these can be found at the National Archive branches and in many genealogical libraries. These printed indexes contain mistakes and omissions, and the
sorted indexes generated for this volume reflects these errors - just as they were found. The information in the census records is shown exactly as it appeared on the microfilm."Some of the microfilm used was of poor quality and often the writing was open to question. An asterisk after a given name is used to indicate doubt about the name. Every attempt was made to be as accurate in the transcribing as possible. "The indexes for these census records have been sorted two ways -- by county and by given name to allow the researcher to locate a given person or locality quickly. --
Dorothy Yoder Coffman--1985.


YODERS IN 1810 PA CENSUS-NAME SEQUENCE
------------TOTAL-116
_____------Yodter------Miff------Arma------1049------26/45
Abraha------Yoder------Som------StoCrk------455------26/45
Abraha------Yoter------Miff------Arma------1049------26/45
Abraha------Youder------N'mptn------UpSau------032------45+
Abraha------Yodder------Mont------UpHan------1235------45+
Abra-Jr------Yoder------Berks------UpMah------826------16/26
Abra-Sr------Yoder------Berks------UpMah------826------26/45
Adam------Youler------Som------Elklk------409------45+
C.------Yoder------Hunt------Hunt------133------26/45
Casper------Yoder------Bucks------Milf------963------45+
Christia------Yotder------Miff------Union------992------45+
Christia------Yoder------Lanc------Stras------417------26/45
Christia------Yotder------Miff------Union------995------26/45
Chrstna------Yoner------York------Dover------1048------45+
Chrstn-JrYoder------Som------StoCrk------455------16/26
Chrstn-SrYoder------Som------StoCrk------455------45+
Daniel------Yoder------Berks------Rock------854------45+
Daniel------Yothers------Centre------Spring------029------45+
Daniel------Yoder------Som------StoCrk------455------26/45
Daniel------Yoder------Berks------Oley------833------45+
David------Yoder------Berks------Oley------828------45+
David------Yodter------Miff------Union------990------26/45
David------Yeathrs------Mont------Moor------167------?
David------Yotder------Miff------Union------995------26/45
David------Yoder------Lanc------Caern------455------45+
George------Yoder------Berks------Oley------833------45+
Henry------Yeoder------N'mptn------UpSauc------032------16/26
Henry------Yoder------Som------Elklk------429------16/26
Henry------Yoder------West------MtPleas------123------26/45
Henry------Yoger------Lycom------Munsey------798------26/45
Henry------Yoger------Lycom------Muncy------808------45+
Henry------Yoder------N'umb------Centre------288------26/45
Henry------Yoider------Lycom------Wayne------841------45+
J.------Yoder------Hunt------Hunt------133------26/45
J.------Yoder------Hunt------Hunt------133------45+
Jacob------Yoder------Som------BroVal------405------45+
Jacob------Yoder------N'umb------Centre------288------26/45
Jacob------Yoter------Miff------Arma------1049------45+
Jacob------Yetter------N'umb------Cataw------245------26/45
Jacob------Yeator------Wayne------MidS------122------26/45
Jacob------Yoder------N'umb------Beav------280------26/45
Jacob------Yoner------N'umb------Sunb------222------45+
Jacob------Yoder------Bucks------Britt------875------45+
Jacob------Yoder------Som------StoCrk------454------45+
Jacob------Yotter------N'mptn------Whtall------042------45+
Jacob------Yoder------Berks------Bern------653------16/26
Jacob------Yoder------Lanc------Salis------440------45+
Jacob------Yodder------Green------Jeff------103------26/45
Jacob------Yoder------Berks------Earl------759------45+
Jacob------Yoder------Berks------Caern------692------26/45
Jacob------Yoder------Berks------Bern------663------45+
Jacob------Yoder------Berks------Rock------851------26/45
Jacob------Yoner------Som------Alleg------472------26/45
Jacob------Yoder------Miff------Union------993------45+
Jane------Yoager------N'umb------Green------172------26/45
Jepthita------Yoder------Som------Quem------409------26/45
John------Yoder------N'mptn------UpSauc------032------26/45
John------Yoder------Som------BroVal------405------26/45
John------Yoder------Lanc------Salis------440------26/45
John------Yoger------Lycom------Wash------794------26/45
John------Joder------N'mptn------Whtall------010------26/45
John------Yoder------Lanc------Stras------417------26/45
John------Yeater------Adams------Gettys------067------26/45
John------Yoder------Bucks------Rock------971------45+
John------Yotter------Lanc------MtJoy------360------26/45
John------Yoder------N'umb------Centre------288------45+
John------Yetter------Mont------Whitm------1265------45+
John------Yetter------N'umb------Catawis------248------26/45
John------Yotder------Miff------Union------993------16/26
John------Yeater------Miff------Derry------1030------26/45
John------Yodter------Miff------Arma------1049------45+
John------Yoder------Berks------Rich------584------26/45
John------Yoder------Berks------Oley------833------26/45
John------Yoder------Berks------Bern------653------26/45
John------Yoder------Berks------Earl------759------26/45
John-Jr------Yetter------N'mptn------L.Smith------073------16/26
John-Jr------Yoder------Som------StoCrk------454------26/45
John-Jr------Yeiger------N'umb------W-Buff------339------26/45
John-Sr------Yoder------Berks------Oley------832------45+
John-Sr------Yoder------Som------StoCrk------454------45+
Jonatha------Yoder------Som------StoCrk------454------45+
Joseph------Yoder------Som------StoCrk------454------26/45
Joseph------Yetter------Mont------Whitm------1265------16/26
Joseph------Yodter------Miff------Arma------985------26/45
Joseph------Yoder------Som------Conem------469------16/26
Joseph------Yoter------Miff------Wayne------997------45+
Lewis------Yetter------Mont------Plym------1205------45+
Ludck-JrYeater------Miff------Derry------1030------26/45
Ludk-Sr------Yeater------Miff------Derry------1030------45+
Martin------Yotterr------Lanc------LttBrit------596------45+
Martin------Yoder------Berks------Oley------833------26/45
MelchoirYoder------N'umb------Centre------288------45+
Melor-Jr------Yoder-------N'umb------Centre------288------26/45
Michael------Yotder------Miff------Union------991------26/45
Peter------Yoder------N'umb------Centre------288------26/45
Peter------Yoder------Berks------UpMahn825------45+
Peter------Yoder------Berks------Dist------762------45+
Philip------Yorgar------Alleg------Fay------186------45+
Samuel------Yoder------Berks------Dist------767------26/45
Samuel------Yetter------N'umb------Cataw------245------45+
Samuel------Yoder------Berks------Rock------851------16/26
Samuel------Yoder------Berks------Oley------833------45+
Samuel------Yeader------Chester------WN------244------26/45
Solomo------Yoder------Som------StoCrk------454------26/45
Stephen------Yoder------Som------StoCrk------455------26/45
Yost------Yoder------Som------Elklk------429------26/45

YODERS-IN-1810-PA-CENSUS-COUNTY-SEQUENCE
------------TOTAL-116
John------Yeater------Adams------Gettys------067------26/45
Philip------Yorgar------Alleg------Fay------186------45+
Jacob------Yoder------Berks------Bern------653------16/26
John------Yoder------Berks------Bern------653------26/45
Jacob------Yoder------Berks------Bern------663------45+
Jacob------Yoder------Berks------Caern------692------26/45
Peter------Yoder------Berks------Dist------762------45+
Samuel------Yoder------Berks------Dist------767------26/45
Jacob------Yoder------Berks------Earl------759------45+
John------Yoder------Berks------Earl------759------26/45
David------Yoder------Berks------Oley------828------45+
John-Sr------Yoder------Berks------Oley------832------45+
Daniel------Yoder------Berks------Oley------833------45+
George------Yoder------Berks------Oley------833------45+
John------Yoder------Berks------Oley------833------26/45
Martin------Yoder------Berks------Oley------833------26/45
Samuel------Yoder------Berks------Oley------833------45+
John------Yoder------Berks------Rich------584------26/45
Jacob------Yoder------Berks------Rock------851------26/45
Samuel------Yoder------Berks------Rock------851------16/26
Daniel------Yoder------Berks------Rock------854------45+
Abra-Jr------Yoder------Berks------UpMah------826------16/26
Abra-Sr------Yoder------Berks------UpMah------826------26/45
Peter------Yoder------Berks------UpMahn825------45+
Jacob------Yoder------Bucks------Britt------875------45+
Casper------Yoder------Bucks------Milf------963------45+
John------Yoder------Bucks------Rock------971------45+
Daniel------Yothers------Centre------Spring------029------45+
Samuel------Yeader------Chester------WN------244------26/45
Jacob------Yodder------Green------Jeff------103------26/45
C.------Yoder------Hunt------Hunt------133------26/45
J.------Yoder------Hunt------Hunt------133------26/45
J.------Yoder------Hunt------Hunt------133------45+
David------Yoder------Lanc------Caern------455------45+
Martin------Yotterr------Lanc------LttBrit------596------45+
John------Yotter------Lanc------MtJoy------360------26/45
Jacob------Yoder------Lanc------Salis------440------45+
John------Yoder------Lanc------Salis------440------26/45
Christia------Yoder------Lanc------Stras------417------26/45
John------Yoder------Lanc------Stras------417------26/45
Henry------Yoger------Lycom------Muncy------808------45+
Henry------Yoger------Lycom------Munsey------798------26/45
John------Yoger------Lycom------Wash------794------26/45
Henry------Yoider------Lycom------Wayne------841------45+
Joseph------Yodter------Miff------Arma------985------26/45
_____------Yodter------Miff------Arma------1049------26/45
Abraha------Yoter------Miff------Arma------1049------26/45
Jacob------Yoter------Miff------Arma------1049------45+
John------Yodter------Miff------Arma------1049------45+
John------Yeater------Miff------Derry------1030------26/45
Ludk-Sr------Yeater------Miff------Derry------1030------45+
Ludck-JrYeater------Miff------Derry------1030------26/45
David------Yodter------Miff------Union------990------26/45
Michael------Yotder------Miff------Union------991------26/45
Christia------Yotder------Miff------Union------992------45+
Jacob------Yoder------Miff------Union------993------45+
John------Yotder------Miff------Union------993------16/26
Christia------Yotder------Miff------Union------995------26/45
David------Yotder------Miff------Union------995------26/45
Joseph------Yoter------Miff------Wayne------997------45+
David------Yeathrs------Mont------Moor------167------?
Lewis------Yetter------Mont------Plym------1205------45+
Abraha------Yodder------Mont------UpHan------1235------45+
John------Yetter------Mont------Whitm------1265------45+
Joseph------Yetter------Mont------Whitm------1265------16/26
John-Jr------Yetter------N'mptn------L.Smith------073------16/26
Abraha------Youder------N'mptn------UpSau------032------45+
Henry------Yeoder------N'mptn------UpSauc------032------16/26
John------Yoder------N'mptn------UpSauc------032------26/45
John------Joder------N'mptn------Whtall------010------26/45
Jacob------Yotter------N'mptn------Whtall------042------45+
Jacob------Yoder------N'umb------Beav------280------26/45
Jacob------Yetter------N'umb------Cataw------245------26/45
Samuel------Yetter------N'umb------Cataw------245------45+
John------Yetter------N'umb------Catawis------248------26/45
Henry------Yoder------N'umb------Centre------288------26/45
Jacob------Yoder------N'umb------Centre------288------26/45
John------Yoder------N'umb------Centre------288------45+
MelchoirYoder------N'umb------Centre------288------45+
Melor-Jr------Yoder-------N'umb------Centre------288------26/45
Peter------Yoder------N'umb------Centre------288------26/45
Jane------Yoager------N'umb------Green------172------26/45
Jacob------Yoner------N'umb------Sunb------222------45+
John-Jr------Yeiger------N'umb------W-Buff------339------26/45
Jacob------Yoner------Som------Alleg------472------26/45
Jacob------Yoder------Som------BroVal------405------45+
John------Yoder------Som------BroVal------405------26/45
Joseph------Yoder------Som------Conem------469------16/26
Adam------Youler------Som------Elklk------409------45+
Henry------Yoder------Som------Elklk------429------16/26
Yost------Yoder------Som------Elklk------429------26/45
Jepthita------Yoder------Som------Quem------409------26/45
Jacob------Yoder------Som------StoCrk------454------45+
John-Jr------Yoder------Som------StoCrk------454------26/45
John-Sr------Yoder------Som------StoCrk------454------45+
Jonatha------Yoder------Som------StoCrk------454------45+
Joseph------Yoder------Som------StoCrk------454------26/45
Solomo------Yoder------Som------StoCrk------454------26/45
Abraha------Yoder------Som------StoCrk------455------26/45
Daniel------Yoder------Som------StoCrk------455------26/45
Stephen------Yoder------Som------StoCrk------455------26/45
Chrstn-SrYoder------Som------StoCrk------455------45+
Chrstn-JrYoder------Som------StoCrk------455------16/26
Jacob------Yeator------Wayne------MidS------122------26/45
Henry------Yoder------West------MtPleas------123------26/45
Chrstna------Yoner------York------Dover------1048------45+
-------------------------------------------
John------Yeater------Adams------Gettys------067------26/45
--------------------male-----female
---------age-45+
------------26/45------1------1
------------16/26
------------10/16
-----Under-10
--------------------------------------------------
Philip------Yorgar------Alleg------Fay------186------45+
--------------------male-----female
---------age-45+------1------1
------------26/45
------------16/26------1------1
------------10/16------------1
-----Under-10------------2
--------------------------------------------
Jacob------Yoder------Berks------Bern------653------16/26------(?YR17a)
--------------------male-----female
---------age-45+------
------------26/45------------1
------------16/26------1------1
------------10/16
-----Under-10------------1
-------------------------------------------
John------Yoder------Berks------Bern------653------26/45------(AL)
--------------------male-----female
---------age-45+------1------1
------------26/45------------1
------------16/26------1------1
------------10/16------------1
-----Under-10------------1
-------------------------------------------
Jacob------Yoder------Berks------Bern------663------45+------(YR177)
--------------------male-----female
---------age-45+
------------26/45------1------1
------------16/26------------1
------------10/16
-----Under-10------3
-------------------------------------------
Jacob------Yoder------Berks------Caern------692------26/45
--------------------male-----female
---------age-45+
------------26/45------1------1
------------16/26
------------10/16------------2
-----Under-10
-------------------------------------------
Peter------Yoder------Berks------Dist------762------45+------(?OY42)
--------------------male-----female
---------age-45+------1------1
------------26/45
------------16/26------2------1
------------10/16------1
-----Under-10------------2
-------------------------------------------
Samuel------Yoder------Berks------Dist------767------26/45------(?OH1321)
--------------------male-----female
---------age-45+
------------26/45------1------1
------------16/26
------------10/16------1
-----Under-10------2------2
-------------------------------------------
Jacob------Yoder------Berks------Earl------759------45+
--------------------male-----female
---------age-45+------1------1
------------26/45
------------16/26
------------10/16
-----Under-10------------2
-------------------------------------------
John------Yoder------Berks------Earl------759------26/45
--------------------male-----female
---------age-45+
------------26/45------1------1
------------16/26
------------10/16------------1
-----Under-10
-------------------------------------------
David------Yoder------Berks------Oley------828------45+------(OH134)
--------------------male-----female
---------age-45+------1
------------26/45------------1
------------16/26------1
------------10/16------------1
-----Under-10------4
-------------------------------------------
John-Sr------Yoder------Berks------Oley------832------45+------(OY1-and-OY11)
--------------------male-----female
---------age-45+------2------1
------------26/45------------1
------------16/26------------1
------------10/16------1
-----Under-10
--------------------------------------------
Daniel------Yoder------Berks------Oley------833------45+------(OH111)
--------------------male-----female
---------age-45+------1------1
------------26/45------2
------------16/26------1------2
------------10/16------1------1
-----Under-10------1
-------------------------------------------
George------Yoder------Berks------Oley------833------45+------(OH132)
--------------------male-----female
---------age-45+------1------2
------------26/45
------------16/26------------1
------------10/16------1
-----Under-10
-------------------------------------------
John------Yoder------Berks------Oley------833------26/45------(w/o-OH14)
--------------------male-----female
---------age-45+------------1
------------26/45------1------1
------------16/26------1------1
------------10/16------2
-----Under-10------2------2
--------------------------------------------
Martin------Yoder------Berks------Oley------833------26/45------(OH1113)
--------------------male-----female
---------age-45+
------------26/45------1------1
------------16/26------1
------------10/16------------1
-----Under-10------1------1
-------------------------------------------
Samuel------Yoder------Berks------Oley------833------45+------(OY17)
--------------------male-----female
---------age-45+------1------1
------------26/45
------------16/26
------------10/16
-----Under-10
-------------------------------------------
John------Yoder------Berks------Rich------584------26/45
--------------------male-----female
---------age-45+
------------26/45------1------1
------------16/26------1------
------------10/16------2------2
-----Under-10------3------2
-------------------------------------------
Jacob------Yoder------Berks------Rock------851------26/45------(?OY412)
--------------------male-----female
---------age-45+
------------26/45------1------1
------------16/26------1
------------10/16------------1
-----Under-10------2------4
-------------------------------------------
Samuel------Yoder------Berks------Rock------851------16/26------(OY413)
--------------------male-----female
---------age-45+
------------26/45
------------16/26------1------1
------------10/16
-----Under-10------1
-------------------------------------------
Daniel------Yoder------Berks------Rock------854------45+------(OY41)
--------------------male-----female
---------age-45+------1------1
------------26/45
------------16/26------1------3
------------10/16------1------1
-----Under-10------1------1
-------------------------------------------
Abra-Jr------Yoder------Berks------UpMah------826------16/26------(OH1322/1326)
--------------------male-----female
---------age-45+
------------26/45
------------16/26------2------1
------------10/16
-----Under-10
-------------------------------------------
Abra-Sr------Yoder------Berks------UpMah------826------26/45------(?OH135)
--------------------male-----female
---------age-45+
------------26/45------1------1
------------16/26
------------10/16------------1
-----Under-10------4------3
-------------------------------------------
Peter------Yoder------Berks------UpMahn825------45+------(OH133)
--------------------male-----female
---------age-45+------1------1
------------26/45
------------16/26------1
------------10/16------2------1
-----Under-10------------2
-------------------------------------------
Jacob------Yoder------Bucks------Britt------875------45+
--------------------male-----female
---------age-45+------1------1
------------26/45------1------1
------------16/26------3------1
------------10/16
-----Under-10------------1
-------------------------------------------
Casper------Yoder------Bucks------Milf------963------45+------(YB23)
--------------------male-----female
---------age-45+------1
------------26/45
------------16/26------1------2
------------10/16------------2
-----Under-10------1------
-------------------------------------------
John------Yoder------Bucks------Rock------971------45+
--------------------male-----female
---------age-45+------1
------------26/45------------1
------------16/26------------1
------------10/16------3------1
-----Under-10------1
-------------------------------------------
Daniel------Yothers------Centre------Spring------029------45+------(F)
--------------------male-----female
---------age-45+------1------1
------------26/45
------------16/26------
------------10/16------2------1
-----Under-10------2------1
-------------------------------------------
Samuel------Yeader------Chester------WN------244------26/45------(AV)
--------------------male-----female
---------age-45+------------
------------26/45------1------1
------------16/26------
------------10/16------2
-----Under-10------2------2
-------------------------------------------
Jacob------Yodder------Green------Jeff------103------26/45------(K)
--------------------male-----female
---------age-45+
------------26/45------1------1
------------16/26------
------------10/16
-----Under-10------5------1
-------------------------------------------
C.------Yoder------Hunt------Hunt------133------26/45
--------------------male-----female
---------age-45+
------------26/45------1------1
------------16/26------
------------10/16
-----Under-10------1------3
-------------------------------------------
J.------Yoder------Hunt------Hunt------133------26/45
--------------------male-----female
---------age-45+
------------26/45------1------1
------------16/26------------1
------------10/16
-----Under-10------1------3
-------------------------------------------
J.------Yoder------Hunt------Hunt------133------45+
--------------------male-----female
---------age-45+------1
------------26/45------------1
------------16/26------1------1
------------10/16
-----Under-10------1
-------------------------------------------
David------Yoder------Lanc------Caern------455------45+
--------------------male-----female
---------age-45+------1
------------26/45
------------16/26------2------2
------------10/16------1------3
-----Under-10
-------------------------------------------
Martin------Yotterr------Lanc------LttBrit------596------45+
--------------------male-----female
---------age-45+------1------1
------------26/45------------1
------------16/26------
------------10/16------1
-----Under-10------------2
-------------------------------------------
John------Yotter------Lanc------MtJoy------360------26/45
--------------------male-----female
---------age-45+------
------------26/45------1------1
------------16/26------1------
------------10/16------3
-----Under-10------3------2
-------------------------------------------
Jacob------Yoder------Lanc------Salis------440------45+
--------------------male-----female
---------age-45+------1------1
------------26/45
------------16/26------1------1
------------10/16------1
-----Under-10
-------------------------------------------
John------Yoder------Lanc------Salis------440------26/45
--------------------male-----female
---------age-45+------------1
------------26/45------1------1
------------16/26------------1
------------10/16------------1
-----Under-10------1------2
-------------------------------------------
Christia------Yoder------Lanc------Stras------417------26/45
--------------------male-----female
---------age-45+
------------26/45------1------
------------16/26------2------1
------------10/16
-----Under-10------1
-------------------------------------------
John------Yoder------Lanc------Stras------417------26/45------(YR143)
--------------------male-----female
---------age-45+
------------26/45------1------1
------------16/26------
------------10/16
-----Under-10------1------1
-------------------------------------------
Henry------Yoger------Lycom------Muncy------808------45+
--------------------male-----female
---------age-45+------1------1
------------26/45------------1
------------16/26------
------------10/16------1
-----Under-10------
-------------------------------------------
Henry------Yoger------Lycom------Munsey------798------26/45
--------------------male-----female
---------age-45+
------------26/45------1------1
------------16/26------
------------10/16------2
-----Under-10------2------1
-------------------------------------------
John------Yoger------Lycom------Wash------794------26/45
--------------------male-----female
---------age-45+
------------26/45------1------1
------------16/26------
------------10/16------1
-----Under-10------3------1
-------------------------------------------
Henry------Yoider------Lycom------Wayne------841------45+
--------------------male-----female
---------age-45+------2------2
------------26/45
------------16/26------
------------10/16
-----Under-10
-------------------------------------------
Joseph------Yodter------Miff------Arma------985------26/45
--------------------male-----female
---------age-45+------
------------26/45------1------1
------------16/26------
------------10/16------1
-----Under-10------1------4
-------------------------------------------
_____------Yodter------Miff------Arma------1049------26/45
--------------------male-----female
---------age-45+------
------------26/45------1------1
------------16/26------1
------------10/16------1------1
-----Under-10------2------3
-------------------------------------------
Abraha------Yoter------Miff------Arma------1049------26/45------(YR165)
--------------------male-----female
---------age-45+------
------------26/45------1------1
------------16/26------------2------
------------10/16------1
-----Under-10------------1
-------------------------------------------
Jacob------Yoter------Miff------Arma------1049------45+------(YR253)
--------------------male-----female
---------age-45+------1------1
------------26/45------1
------------16/26------1------1
------------10/16------1------1
-----Under-10------3------3
-------------------------------------------
John------Yodter------Miff------Arma------1049------45+
--------------------male-----female
---------age-45+------1------1------
------------26/45
------------16/26------
------------10/16
-----Under-10
-------------------------------------------
John------Yeater------Miff------Derry------1030------26/45
--------------------male-----female
---------age-45+------
------------26/45
------------16/26------
------------10/16
-----Under-10
-------------------------------------------
Ludk-Sr------Yeater------Miff------Derry------1030------45+
--------------------male-----female
---------age-45+------
------------26/45
------------16/26------
------------10/16
-----Under-10
-------------------------------------------
Ludck-JrYeater------Miff------Derry------1030------26/45
--------------------male-----female
---------age-45+------
------------26/45
------------16/26------
------------10/16
-----Under-10
-------------------------------------------
David------Yodter------Miff------Union------990------26/45------(YR174)
--------------------male-----female
---------age-45+------
------------26/45------1------1
------------16/26------
------------10/16------------1
-----Under-10------3
-------------------------------------------
Michael------Yotder------Miff------Union------991------26/45
--------------------male-----female
---------age-45+------
------------26/45------1------1
------------16/26------
------------10/16
-----Under-10
-------------------------------------------
Christia------Yotder------Miff------Union------992------45+
--------------------male-----female
---------age-45+------1
------------26/45------------1
------------16/26------2------1
------------10/16------1------1
-----Under-10------------2
-------------------------------------------
Jacob------Yoder------Miff------Union------993------45+------(YR162)
--------------------male-----female
---------age-45+------1------1
------------26/45
------------16/26------2------1------
------------10/16------2
-----Under-10------2------3
-------------------------------------------
John------Yotder------Miff------Union------993------16/26
--------------------male-----female
---------age-45+------
------------26/45
------------16/26------1------1
------------10/16------------1
-----Under-10
-------------------------------------------
Christia------Yotder------Miff------Union------995------26/45
--------------------male-----female
---------age-45+------
------------26/45------1------2
------------16/26------1
------------10/16
-----Under-10------3------3
-------------------------------------------
David------Yotder------Miff------Union------995------26/45------(?YR267)
--------------------male-----female
---------age-45+------
------------26/45------2------1
------------16/26------
------------10/16------1
-----Under-10------1------1
-------------------------------------------
Joseph------Yoter------Miff------Wayne------997------45+
--------------------male-----female
---------age-45+------1------1
------------26/45
------------16/26------4------2
------------10/16------1------2
-----Under-10
-------------------------------------------
David------Yeathrs------Mont------Moor------167------?
--------------------male-----female
---------age-45+------
------------26/45------scratched-out-no-entry
------------16/26------
------------10/16
-----Under-10
-------------------------------------------
Lewis------Yetter------Mont------Plym------1205------45+
--------------------male-----female
---------age-45+------1------
------------26/45------------1
------------16/26------
------------10/16------1
-----Under-10------1
-------------------------------------------
Abraha------Yodder------Mont------UpHan------1235------45+
--------------------male-----female
---------age-45+------1
------------26/45------------1
------------16/26------
------------10/16------1------3
-----Under-10------3------1
-------------------------------------------
John------Yetter------Mont------Whitm------1265------45+
--------------------male-----female
---------age-45+------1------1
------------26/45------------1
------------16/26------------1------
------------10/16------2
-----Under-10------------1
-------------------------------------------
Joseph------Yetter------Mont------Whitm------1265------16/26
--------------------male-----female
---------age-45+------------1
------------26/45
------------16/26------1------
------------10/16
-----Under-10------------1
-------------------------------------------
John-Jr------Yetter------N'mptn------L.Smith------073------16/26
--------------------male-----female
---------age-45+------
------------26/45------
------------16/26------1------1
------------10/16
-----Under-10------1
-------------------------------------------
Abraha------Youder------N'mptn------UpSau------032------45+
--------------------male-----female
---------age-45+------1------1
------------26/45------1
------------16/26------2------1
------------10/16------------1
-----Under-10
-------------------------------------------
Henry------Yeoder------N'mptn------UpSauc------032------16/26
--------------------male-----female
---------age-45+------
------------26/45------
------------16/26------1------1
------------10/16
-----Under-10------3
-------------------------------------------
John------Yoder------N'mptn------UpSauc------032------26/45
--------------------male-----female
---------age-45+------
------------26/45------1------1------
------------16/26------2------2
------------10/16------1------1
-----Under-10------2------1
-------------------------------------------
John------Joder------N'mptn------Whtall------010------26/45
--------------------male-----female
---------age-45+------
------------26/45------1------1------
------------16/26------
------------10/16
-----Under-10------3------2
-------------------------------------------
Jacob------Yotter------N'mptn------Whtall------042------45+
--------------------male-----female
---------age-45+------1------1
------------26/45------1------1
------------16/26------------------(reportedly-of-
------------10/16------1------1------Oley-Twp)
-----Under-10------------1
-------------------------------------------
Jacob------Yoder------N'umb------Beav------280------26/45
--------------------male-----female
---------age-45+------------1
------------26/45------1------1
------------16/26------1------
------------10/16------2
-----Under-10------3------3
-------------------------------------------
Jacob------Yetter------N'umb------Cataw------245------26/45------
--------------------male-----female
---------age-45+------
------------26/45------1------------
------------16/26------------1
------------10/16------------
-----Under-10------1------1
-------------------------------------------
Samuel------Yetter------N'umb------Cataw------245------45+
--------------------male-----female
---------age-45+------2------1
------------26/45------
------------16/26------2------1
------------10/16------------1
-----Under-10------1------1
-------------------------------------------
John------Yetter------N'umb------Catawis------248------26/45
--------------------male-----female
---------age-45+------
------------26/45------1
------------16/26------1------1
------------10/16------1
-----Under-10------1------1
-------------------------------------------
Henry------Yoder------N'umb------Centre------288------26/45------(M6)
--------------------male-----female
---------age-45+------
------------26/45------1------1------
------------16/26------1------1
------------10/16
-----Under-10------4------3
-------------------------------------------
Jacob------Yoder------N'umb------Centre------288------26/45------(M3)
--------------------male-----female
---------age-45+------
------------26/45------1------1
------------16/26------1
------------10/16------2
-----Under-10------3------3
-------------------------------------------
John------Yoder------N'umb------Centre------288------45+------(M2)
--------------------male-----female
---------age-45+------1
------------26/45------1------1
------------16/26------
------------10/16------------1
-----Under-10------1------1
-------------------------------------------
MelchoirYoder------N'umb------Centre------288------45+------(M)
--------------------male-----female
---------age-45+------1------1
------------26/45------
------------16/26------
------------10/16
-----Under-10
-------------------------------------------
Melor-Jr------Yoder-------N'umb------Centre------288------26/45---------(M7)
--------------------male-----female
---------age-45+------
------------26/45------1------1
------------16/26------
------------10/16
-----Under-10------1
-------------------------------------------
Peter------Yoder------N'umb------Centre------288------26/45------(M8)
--------------------male-----female
---------age-45+------
------------26/45------1------1
------------16/26------
------------10/16
-----Under-10------3------2
-------------------------------------------
Jane------Yoager------N'umb------Green------172------26/45
--------------------male-----female
---------age-45+------
------------26/45------------1
------------16/26------
------------10/16------------1
-----Under-10------3
-------------------------------------------
Jacob------Yoner------N'umb------Sunb------222------45+
--------------------male-----female
---------age-45+------1
------------26/45------------1
------------16/26------------1
------------10/16------1------1
-----Under-10
-------------------------------------------
John-Jr------Yeiger------N'umb------W-Buff------339------26/45
--------------------male-----female------(Inn-Keeper)
---------age-45+------
------------26/45------1------1
------------16/26------------1
------------10/16------1
-----Under-10------3
-------------------------------------------
Jacob------Yoner------Som------Alleg------472------26/45
--------------------male-----female
---------age-45+------
------------26/45------1------1
------------16/26------?
------------10/16------1
-----Under-10
-------------------------------------------
Jacob------Yoder------Som------BroVal------405------45+------
--------------------male-----female
---------age-45+------1------1
------------26/45------
------------16/26------------2
------------10/16------1------1
-----Under-10------1------1
-------------------------------------------
John------Yoder------Som------BroVal------405------26/45
--------------------male-----female
---------age-45+------
------------26/45------1------
------------16/26------------1
------------10/16
-----Under-10
-------------------------------------------
Joseph------Yoder------Som------Conem------469------16/26
--------------------male-----female
---------age-45+------
------------26/45------
------------16/26------1------1
------------10/16
-----Under-10
-------------------------------------------
Adam------Youler------Som------Elklk------409------45+
--------------------male-----female
---------age-45+------3
------------26/45------1------1
------------16/26------
------------10/16
-----Under-10------2------4
-------------------------------------------
Henry------Yoder------Som------Elklk------429------16/26-------(YR261)
--------------------male-----female
---------age-45+------1------1
------------26/45------
------------16/26------1------2
------------10/16------2
-----Under-10------------2
-------------------------------------------
Yost------Yoder------Som------Elklk------429------26/45
--------------------male-----female
---------age-45+------1------1
------------26/45------1------2
------------16/26------------
------------10/16
-----Under-10------2------1
-------------------------------------------
Jepthita------Yoder------Som------Quem------409------26/45
--------------------male-----female
---------age-45+------
------------26/45------1------1
------------16/26------
------------10/16
-----Under-10------1------1
-------------------------------------------
Jacob------Yoder------Som------StoCrk------454------45+
--------------------male-----female
---------age-45+------1------1
------------26/45------
------------16/26------1------1
------------10/16
-----Under-10------2------1
-------------------------------------------
John-Jr------Yoder------Som------StoCrk------454------26/45
--------------------male-----female
---------age-45+------
------------26/45------1------1
------------16/26------
------------10/16------1------1
-----Under-10------4------3
-------------------------------------------
John-Sr------Yoder------Som------StoCrk------454------45+
--------------------male-----female
---------age-45+------1------1
------------26/45------------1
------------16/26------1------
------------10/16------1
-----Under-10
-------------------------------------------
Jonatha------Yoder------Som------StoCrk------454------45+------(YR237)
--------------------male-----female
---------age-45+------1
------------26/45------------1
------------16/26------
------------10/16
-----Under-10------1------1
-------------------------------------------
Joseph------Yoder------Som------StoCrk------454------26/45
--------------------male-----female
---------age-45+------
------------26/45------1------
------------16/26------------1
------------10/16
-----Under-10------1
-------------------------------------------
Solomo------Yoder------Som------StoCrk------454------26/45------(YR23b)
--------------------male-----female
---------age-45+------
------------26/45------1------1
------------16/26------------1
------------10/16------------1
-----Under-10------3------?3
-------------------------------------------
Abraha------Yoder------Som------StoCrk------455------26/45
--------------------male-----female
---------age-45+------
------------26/45------1------1
------------16/26------
------------10/16
-----Under-10------4
-------------------------------------------
Daniel------Yoder------Som------StoCrk------455------26/45
--------------------male-----female
---------age-45+------
------------26/45------1
------------16/26------------1
------------10/16------1
-----Under-10------2------2
----------------------2---------------------
Stephen------Yoder------Som------StoCrk------455------26/45
--------------------male-----female
---------age-45+------
------------26/45------1------
------------16/26------------1
------------10/16
-----Under-10
-------------------------------------------
Chrstn-SrYoder------Som------StoCrk------455------45+
--------------------male-----female
---------age-45+------1------1
------------26/45------
------------16/26------
------------10/16
-----Under-10
-------------------------------------------
Chrstn-JrYoder------Som------StoCrk------455------16/26
--------------------male-----female
---------age-45+------
------------26/45------
------------16/26------1------1
------------10/16
-----Under-10
-------------------------------------------
Jacob------Yeator------Wayne------MidS------122------26/45
--------------------male-----female
---------age-45+------
------------26/45------1------1
------------16/26------
------------10/16------------1
-----Under-10------------2
-------------------------------------------
Henry------Yoder------West------MtPleas------123------26/45------(YB214)
--------------------male-----female
---------age-45+------
------------26/45------1------1
------------16/26------
------------10/16
-----Under-10------3------1
-------------------------------------------
Chrstna------Yoner------York------Dover------1048------45+
--------------------male-----female
---------age-45+------------1
------------26/45------
------------16/26------
------------10/16------1
-----Under-10



Back to INDEX Back to CONTENTS

Yoder Newsletter - © Christopher K. Yoder, 1992, 1994