Search billions of records on Ancestry.com

Back to INDEX Back to CONTENTS

Yoder Census Records

Compiled by the Yoder Newsletter

CENSUS RECORDS FOR YODER FAMILIES IN PENNSYLVANIA-1820


These records were originally assembled in 1991 by Dorothy Yoder Coffman, 30 Grouse Road, Malvern, Pa, 19355-2208. They have been retyped from her hardcopy and are presented with her permission by the Yoder Newsletter. The Yoder Newsletter has also added the identification number for those heads of household whose identity is know. These codes relate to the family groups which have been archived elsewhere.--
Chris Yoder
*********************************************************************
"NOTES TO THE USER: All possible spellings of this name were included to allow for human error in the hearing, spelling or transcribing of the name."The information contained here was taken from the printed texts, indexes and microfilm found at the branch of the national Archives in Philadelphia, Pennsylvania.
The term 'printed index(s)' refers to those volumes generated by commercial or private groups, and these can be found at the National Archive branches and in many genealogical libraries. These printed indexes contain mistakes and omissions, and the
sorted indexes generated for this volume reflects these errors - just as they were found. The information in the census records is shown exactly as it appeared on the microfilm."Some of the microfilm used was of poor quality and often the writing was open to question. An asterisk after a given name is used to indicate doubt about the name. Every attempt was made to be as accurate in the transcribing as possible. "The indexes for these census records have been sorted two ways -- by county and by given name to allow the researcher to locate a given person or locality quickly. --
Dorothy Yoder Coffman--1985.



YODERS IN 1820 PA CENSUS-NAME SEQUENCE
------------TOTAL
first------last------county------twp------page------age

Abra-Jr------Yoder------Lehigh------UpSauc------199------26/45
Abra-Sr------Yoder------Lehigh------UpSauc------199------45+
Abraha------Yeathrs------Bucks------Doyles------021------26/45
Abraha------Yetter------N'mptn------Smthfld------290------16/26
Abraha------Yoder------Schyl------Norw------126------45+
Abraha------Yoder------Schyl------UpMah------096------26/45
Andrew------Yater------Green------Centr------334------26/45
Ann------Yetter------Mont------Plym------090------45+
Anthny------Yoder------Schyl------UpMah------096------26/45
Caleb------Yotter------Cambr------Conem------187------16/26
Casper------Yeothrs------Bucks------Mill------057------45+
Catherin------Yater------Green------Centr------334------45+
Christ-Jr------Yoder------Som------StoCrk------138------45+
Christia------Yoder------Hunt------Hend------070------16/26
Christia------Yoder------Hunt------Woodb------037------26/45
Christia------Yoder------Lanc------Salis------279------26/45
Christia------Yoder------Miff------Union------192------26/45
Christia------Yoder------Miff------Union------192------26/45
Christia------Yoder------Miff------Union------192------45+
Christia------Yoder------Miff------Union------192------45+
Christia------Yoder------Miff------Union------192------45+
Christia------Yoder------Miff------Wayne------181------26/45
Christia------Yoder------Som------StoCrk------138------16/26
Christia------Yoder------Som------StoCrk------136------26/45
Daniel------Yoder------Berks------Cumru------013------26/45
Daniel------Yoder------Berks------Oley------117------26/45
Daniel------Yoder------Berks------Pike------136------26/45
Daniel------Yoder------Berks------Rock------108------45+
Daniel------Yeathrs------Centr------Boggs------200------45+
Daniel------Yetter------Colum------Cata------016------26/45
Daniel------Yoder------Hunt------Hend------068------26/45
Daniel------Yoder------Hunt------WarMk------085------16/26
Daniel------Yoder------Lanc------Caern------204------26/45
Daniel------Yeoter------Westm------Alleg------160------16-26
David------Yotter------Cambr------Conem------187------16/26
David------Yoder------Colum------Cata------016------26/45
David------Yoder------Miff------Derry------194------45+
David------Yoder------Miff------Union------191------45+
David------Yoder------Miff------Union------192------45+
David------Yates------Phila------Swrk------095------26/45
David------Yoder------Union------WhtDr------072------26/45
Eliza------------Union------Centre------051------?------
Elizabet------Yetter------Lanc------Rapho------179------26/45
George------Yoder------Berks------Oley------114------26/45
George------Yitter------Colum------Helm------026------16/26
George------Yoder------Green------Jeff------352------16/26
George------Yoder------Schyl------UpMah------092------26/45
Gideon------Yoder------Miff------Arma------198A------16/26
Henry------Yoder------Centr------Hlfmoo------190------26/45
Henry------Yeader------Lycm------Wayn------095------45+
Henry------Yoder------Miff------Wayne------181------45+
Henry------Yoder------Som------Elklk------237------45+
Henry------Yeathrs------Westm------MtPl------132------45+
Isaac------Yetter------Butler------Butler------139------26/45
Isaac------Yoder------Miff------Union------192------45+
Jacob------Yeiter------Alleg------Pitts------166------26/45
Jacob------Yoder------Berks------Exeter------221------45+
Jacob------Yoder------Berks------Oley------117------26/45
Jacob------Yoder------Berks------Rock------108------26/45
Jacob------Yoder------Berks------Rock------107------45+
Jacob------Yoder------Berks------Tulp------069------45+
Jacob------Yoder------Berks------UpBern------168------26/45
Jacob------Yeathrs------Bucks------Doyles------021------26/45
Jacob------Yoder------Centr------Hlfmoo------190------26/45
Jacob------Yetter------Colum------Cata------016------26/45
Jacob------Yoder------Miff------Arma------198A------45+
Jacob------Yeater------Miff------Decatur------204------45+
Jacob------Yoder------Miff------Union------192------16/26
Jacob------Yoder------Som------BroVal------135------45+
Jacob------Yoder------Som------StoCrk------137------45+
Jacob------Yoder------Wash------E-Bethl------246------45+
Jacob-Jr------Yoder------Lehigh------UpSauc------199------26/45
Jacob-Sr------Yoder------Lehigh------UpSauc------199------26/45------
Jane------Yoder------Lanc------Salis------273------45+
Jephat------Yoder------Som------Jenner------150------26/45
Jeremia------Yoder------Schyl------UpMah------092------16/26
John------Yoder------Berks-------Earl------122------45
John------Yoder------Berks------Maxa------198------45+
John------Yoder------Berks------Oley------117------26/45
John------Yoder------Berks------UpBern------168------45+
John------Yater------Green------Centr------334------16/26
John------Yoder------Green------Jeff------353------16/26
John------Yoder------Hunt------WarMk------085------45+
John------Yider------Lanc------MtJoy------161------16/26
John------Yetter------Lanc------Rapho------172------26/45
John------Yoder------Lanc------Salis------281------45+
John-------Yoder------Lehigh------UpSauc------199------45+
John------Yeater------Miff------Decatur------204------16/26
John------Yeager------Miff------Decatur------204------45+
John------Yoder------Miff------Derry------194------26/45
John------Yoder------Miff------Union------191------45+
John------Yetter------Mont------Whtmsh------256------26/45
John------Yetter------N'mptn------Smthfld------290------16/26
John------Yetter------Pike------mixed------020------45+
John-------Yoder------Som------StoCrk------137------26/45
John------Yotter------Union------Centre------059------45+
John------Yeatey------Westm------MtPl------128------45+
John-Sr------Yoder------Som------StoCrk------138------45+
JohnEsq------Yetter------Colum------Cata------016------26/45
JohnL-B------Yetter------Mont------Whtmsh------256------45+
Jonatha------Yoder------Miff------Derry------194------16/26
Jonatha------Yoder------Som------StoCrk------137------45+
Joseph------Yater------Green------Wayne------327------16/26
Joseph------Yoder------Miff------Wayne------181------45+
Joseph------Yetter------N'mptn------UpMtB------299------45+
Joseph------Yoder------Som------Conem------143------26/45
Joseph------Yoder------Som------Conem------143------26/45
Joseph------Yoder------Som------Elklk------219---------
Josph-Jr------Yoder------Centr------Hlfmoo------190------26/45
Julian------Yoder------Chest------WNant------221------16/26
Lep-&------Yoder------Berks------Heidel------054------45+------
Lifert-?------Yoder------Berks------Rock------107------45+
Ludwick------Yeater------Miff------Decatur------204------45+
Margart------Yetter------Mont------UpMer------276------26/45
Martha------Yutsey------Miff------Wayne------181------45+------
Martin------Yoder------Berks------Oley------117------26/45
Michael------Yoder------Miff------Union------190------45+
Michael------Yutsey------Miff------Wayne------181------45+
Peter------Yoder------Lehigh------UpSauc------199------26/45
Peter------Yoder------Miff------Union------191------26/45
Peter------Yoder------Miff------Union------192------45+
Peter------Yoder------Schyl------UpMah------096------45+
Philip------Yerter------Centre------Pott------258------26/45
Philip------Yeater------Miff------Decatur------204------26/45
Saml-Jr------Yetter------Colum------Cata------016------45+
Samuel------Yoder------Berks------Rock------107------45+
Samuel------Yeathrs------Bucks------Rock------067------26/45
Samuel------Yetters------Colum------Cata------016------45+
Samuel------Yetter------Lanc------MtJoy------154------26/45
Samuel------Yoder------Berks------Pike------135------45+
Samuel------Yoder------Union------WhtDr------072------26/45
Solomo------Yoder------Schyl------UpMah------092------16/26
Solomo------Yoder------Som------StoCrk------138------26/45
Widow------Yeoter------Westm------Alleg------160------45+
William------Yoder------Berks------Oley------114------?16/26
Yost------Yoder------Som------Elklk------237------26/45
Yost------Yoder------Som------StoCrk------138------26/45
-------------------------------------------
YODERS-IN-1820-PA-CENSUS-COUNTY-SEQUENCE
------------TOTAL
first------last------county------twp------page------age

Jacob------Yeiter------Alleg------Pitts------166------26/45
Daniel------Yoder------Berks------Cumru------013------26/45
Lep-&------Yoder------Berks------Heidel------054------45+------
Jacob------Yoder------Berks------Tulp------069------45+
Jacob------Yoder------Berks------Rock------107------45+
Lifert-?------Yoder------Berks------Rock------107------45+
Samuel------Yoder------Berks------Rock------107------45+
Daniel------Yoder------Berks------Rock------108------45+
Jacob------Yoder------Berks------Rock------108------26/45
George------Yoder------Berks------Oley------114------26/45
William------Yoder------Berks------Oley------114------?16/26
Daniel------Yoder------Berks------Oley------117------26/45
Jacob------Yoder------Berks------Oley------117------26/45
John------Yoder------Berks------Oley------117------26/45
Martin------Yoder------Berks------Oley------117------26/45
John------Yoder------Berks-------Earl------122------45
Samuel------Yoder------Berks------Pike------135------45+
Daniel------Yoder------Berks------Pike------136------26/45
Jacob------Yoder------Berks------UpBern------168------26/45
John------Yoder------Berks------UpBern------168------45+
John------Yoder------Berks------Maxa------198------45+
Jacob------Yoder------Berks------Exeter------221------45+
Abraha------Yeathrs------Bucks------Doyles------021------26/45
Jacob------Yeathrs------Bucks------Doyles------021------26/45
Casper------Yeothrs------Bucks------Mill------057------45+
Samuel------Yeathrs------Bucks------Rock------067------26/45
Isaac------Yetter------Butler------Butler------139------26/45
Caleb------Yotter------Cambr------Conem------187------16/26
David------Yotter------Cambr------Conem------187------16/26
Henry------Yoder------Centr------Hlfmoo------190------26/45
Jacob------Yoder------Centr------Hlfmoo------190------26/45
Josph-Jr------Yoder------Centr------Hlfmoo------190------26/45
Daniel------Yeathrs------Centr------Boggs------200------45+
Philip------Yerter------Centre------Pott------258------26/45
Julian------Yoder------Chest------WNant------221------16/26
Daniel------Yetter------Colum------Cata------016------26/45
David------Yoder------Colum------Cata------016------26/45
Jacob------Yetter------Colum------Cata------016------26/45
JohnEsq------Yetter------Colum------Cata------016------26/45
Saml-Jr------Yetter------Colum------Cata------016------45+
Samuel------Yetters------Colum------Cata------016------45+
George------Yitter------Colum------Helm------026------16/26
Joseph------Yater------Green------Wayne------327------16/26
Andrew------Yater------Green------Centr------334------26/45
Cathern------Yater------Green------Centr------334------45+
John------Yater------Green------Centr------334------16/26
George------Yoder------Green------Jeff------352------16/26
John------Yoder------Green------Jeff------353------16/26
Christia------Yoder------Hunt------Woodb------037------26/45
Daniel------Yoder------Hunt------Hend------068------26/45
Christia------Yoder------Hunt------Hend------070------16/26
Daniel------Yoder------Hunt------WarMk------085------16/26
John------Yoder------Hunt------WarMk------085------45+
Samuel------Yetter------Lanc------MtJoy------154------26/45
John------Yider------Lanc------MtJoy------161------16/26
John------Yetter------Lanc------Rapho------172------26/45
Elizabet------Yetter------Lanc------Rapho------179------26/45
Daniel------Yoder------Lanc------Caern------204------26/45
Jane------Yoder------Lanc------Salis------273------45+
Christia------Yoder------Lanc------Salis------279------26/45
John------Yoder------Lanc------Salis------281------45+
Abra-Jr------Yoder------Lehigh------UpSauc------199------26/45
Abra-Sr------Yoder------Lehigh------UpSauc------199------45+
Jacob-Jr------Yoder------Lehigh------UpSauc------199------26/45
Jacob-Sr------Yoder------Lehigh------UpSauc------199------26/45------
John-------Yoder------Lehigh------UpSauc------199------45+
Peter------Yoder------Lehigh------UpSauc------199------26/45
Henry------Yeader------Lycm------Wayn------095------45+
Christia------Yoder------Miff------Wayne------181------26/45
Henry------Yoder------Miff------Wayne------181------45+
Joseph------Yoder------Miff------Wayne------181------45+
Martha------Yutsey------Miff------Wayne------181------45+------
Michael------Yutsey------Miff------Wayne------181------45+
Michael------Yoder------Miff------Union------190------45+
David------Yoder------Miff------Union------191------45+
John------Yoder------Miff------Union------191------45+
Peter------Yoder------Miff------Union------191------26/45
Christia------Yoder------Miff------Union------192------26/45
Christia------Yoder------Miff------Union------192------26/45
Christia------Yoder------Miff------Union------192------45+
Christia------Yoder------Miff------Union------192------45+
Christia------Yoder------Miff------Union------192------45+
David------Yoder------Miff------Union------192------45+
Isaac------Yoder------Miff------Union------192------45+
Jacob------Yoder------Miff------Union------192------16/26
Peter------Yoder------Miff------Union------192------45+
David------Yoder------Miff------Derry------194------45+
John------Yoder------Miff------Derry------194------26/45
Jonatha------Yoder------Miff------Derry------194------16/26
Gideon------Yoder------Miff------Arma------198A------16/26
Jacob------Yoder------Miff------Arma------198A------45+
Jacob------Yeater------Miff------Decatur------204------45+
John------Yeater------Miff------Decatur------204------16/26
John------Yeager------Miff------Decatur------204------45+
Ludwick------Yeater------Miff------Decatur------204------45+
Philip------Yeater------Miff------Decatur------204------26/45
Ann------Yetter------Mont------Plym------090------45+
John------Yetter------Mont------Whtmsh------256------26/45
JohnL-B------Yetter------Mont------Whtmsh------256------45+
Margart------Yetter------Mont------UpMer------276------26/45
Abraha------Yetter------N'mptn------Smthfld------290------16/26
John------Yetter------N'mptn------Smthfld------290------16/26
Joseph------Yetter------N'mptn------UpMtB------299------45+
David------Yates------Phila------Swrk------095------26/45
John------Yetter------Pike------mixed------020------45+
George------Yoder------Schyl------UpMah------092------26/45
Jeremia------Yoder------Schyl------UpMah------092------16/26
Solomo------Yoder------Schyl------UpMah------092------16/26
Abraha------Yoder------Schyl------UpMah------096------26/45
Anthny------Yoder------Schyl------UpMah------096------26/45
Peter------Yoder------Schyl------UpMah------096------45+
Abraha------Yoder------Schyl------Norw------126------45+
Jacob------Yoder------Som------BroVal------135------45+
Christia------Yoder------Som------StoCrk------136------26/45
Jacob------Yoder------Som------StoCrk------137------45+
John-------Yoder------Som------StoCrk------137------26/45
Jonatha------Yoder------Som------StoCrk------137------45+
Chris-Jr------Yoder------Som------StoCrk------138------45+
Christia------Yoder------Som------StoCrk------138------16/26
John-Sr------Yoder------Som------StoCrk------138------45+
Solomo------Yoder------Som------StoCrk------138------26/45
Yost------Yoder------Som------StoCrk------138------26/45
Joseph------Yoder------Som------Conem------143------26/45
Joseph------Yoder------Som------Conem------143------26/45
Jephat------Yoder------Som------Jenner------150------26/45
Joseph------Yoder------Som------Elklk------219---------
Henry------Yoder------Som------Elklk------237------45+
Yost------Yoder------Som------Elklk------237------26/45
Eliza-------------Union------Centre------051------?------
John------Yotter------Union------Centre------059------45+
David------Yoder------Union------WhtDr------072------26/45
Samuel------Yoder------Union------WhtDr------072------26/45
Jacob------Yoder------Wash------E-Bethl------246------45+
John------Yeatey------Westm------MtPl------128------45+
Henry------Yeathrs------Westm------MtPl------132------45+
Daniel------Yeoter------Westm------Alleg------160------16-26
Widow------Yeoter------Westm------Alleg------160------45+
-------------------------------------------
Jacob------Yeiter------Alleg------Pitts------166------26/45
----------------male------female
age-45+------------
-----26/45------1
-----16/26------------1
-----16/18-----------------------(dupe-line)
-----10/16------1
Under-10------2
1-in-Agriculture
-------------------------------------------
Daniel------Yoder------Berks------Cumru------013------26/45
----------------male------female
age-45+------------
-----26/45------1------1
-----16/26------
-----16/18-----------------------(dupe-line)------
-----10/16------1
Under-10------2------3
-------------------------------------------
Lep-&------Yoder------Berks------Heidel------054------45+------
----------------male------female
age-45+------------------1
-----26/45------------1
-----16/26------1
-----16/18-----------------------(dupe-line)------
-----10/16------
Under-10------1
1-in-manufacturing
-------------------------------------------
Jacob------Yoder------Berks------Tulp------069------45+------(AL)
----------------male------female
age-45+------------1------1
-----26/45------1------1
-----16/26------1------2
-----16/18-----------------------(dupe-line)------
-----10/16------
Under-10------
-------------------------------------------
Jacob------Yoder------Berks------Rock------107------45+------(OY45)
----------------male------female
age-45+------------1
-----26/45------------1
-----16/26------2------1
-----16/18------1------------------(dupe-line)------
-----10/16------------3
Under-10------2------3
2-in-agriculture-1-in-manufacturung
-------------------------------------------
Lifert-(In-Index)-(?Samuel)-Yoder------Berks------Rock------107------45+
----------------male------female
age-45+------------1
-----26/45------1------1
-----16/26------------
-----16/18-----------------------(dupe-line)------
-----10/16------1------2
Under-10------3------1
2-in-agriculture
-------------------------------------------
Daniel------Yoder------Berks------Rock------108------45+------(OY41)
----------------male------female
age-45+------------1------1
-----26/45------------1
-----16/26------2------3
-----16/18------1------------------(dupe-line)------
-----10/16------1
Under-10------
2-in-Agriculture
-------------------------------------------
Jacob------Yoder------Berks------Rock------108------26/45------(?OY411)
----------------male------female
age-45+------------
-----26/45------1------1
-----16/26------
-----16/18------------------------(dupe-line)------
-----10/16------1
Under-10------------1
1-in-agriculture
-------------------------------------------
George--and-William-(listed-together)
------------Berks------Oley------114------26/45
----------------male------female
age-45+------------------1
-----26/45------1------1
-----16/26------1------1
-----16/18-----------------------(dupe-line)------
-----10/16------
Under-10------2
3-in-agriculture
-------------------------------------------
Daniel------Yoder------Berks------Oley------117------26/45
----------------male------female
age-45+------------------1
-----26/45------1
-----16/26------2------2
-----16/18-----------------------(dupe-line)------
-----10/16------------1
Under-10------
3-in-agriculture
-------------------------------------------
Jacob------Yoder------Berks------Oley------117------26/45
----------------male------female
age-45+------------
-----26/45------1------1
-----16/26------1------1
-----16/18-----------------------(dupe-line)------
-----10/16------1
Under-10------------1
2-in-agriculture
-------------------------------------------
John------Yoder------Berks------Oley------117------26/45
----------------male------female
age-45+------------
-----26/45------1------1
-----16/26------1------1
-----16/18-----------------------(dupe-line)------
-----10/16------2------1
Under-10------3------1
2-in-agriculture
-------------------------------------------
Martin------Yoder------Berks------Oley------117------26/45
----------------male------female
age-45+------------
-----26/45------1------1
-----16/26------3------1
-----16/18------2-----------------(dupe-line)------
-----10/16------1------1
Under-10------2------1
4-in-manufacturing
-------------------------------------------
John------Yoder------Berks-------Earl------122------45
----------------male------female
age-45+------------1------1
-----26/45------
-----16/26------------1
-----16/18-----------------------(dupe-line)------
-----10/16------1
Under-10------------1
1-in-manufacturing
-------------------------------------------
Samuel-(Solomon-in-Index)-Yoder------Berks------Pike------135------45+------(OH1321)
----------------male------female
age-45+------------1
-----26/45------------1
-----16/26------1
-----16/18------------------------(dupe-line)------
-----10/16------2------1
Under-10------2------
2-in-agriculture
-------------------------------------------
Daniel------Yoder------Berks------Pike------136------26/45
----------------male------female
age-45+------------
-----26/45------1------1
-----16/26------------1
-----16/18-----------------------(dupe-line)------
-----10/16------1
Under-10------
-------------------------------------------
Jacob------Yoder------Berks------UpBern------168------26/45------(YR17a)
----------------male------female
age-45+------------
-----26/45------2------2
-----16/26------
-----16/18------------------------(dupe-line)------
-----10/16------1
Under-10------1------5
2-in-agriculture------
-------------------------------------------
John------Yoder------Berks------UpBern------168------45+------(YR177)
----------------male------female
age-45+------------1
-----26/45------------1
-----16/26------
-----16/18-----------------------(dupe-line)------
-----10/16------2
Under-10------3------3
1-in-agriculture
-------------------------------------------
John------Yoder------Berks------Maxa------198------45+------
----------------male------female
age-45+------------1------1
-----26/45------
-----16/26------2------2
-----16/18-----------------------(dupe-line)------
-----10/16------1------1
Under-10------
2-in-agriculture--1-foreigner-not--naturalized
-------------------------------------------
Jacob------Yoder------Berks------Exeter------221------45+------(OY
----------------male------female
age-45+------------1------1
-----26/45------1
-----16/26------
-----16/18-----------------------(dupe-line)------
-----10/16------
Under-10------2------1
2-in-agriculture
-------------------------------------------
Abraham-Yeathers------Bucks------Doyles------021------26/45
----------------male------female
age-45+------------
-----26/45------2------1
-----16/26------
-----16/18------------------------(dupe-line)------
-----10/16------1
Under-10------1------1
1-in-agriculture
-------------------------------------------
Jacob------Yeathrs------Bucks------Doyles------021------26/45
----------------male------female
age-45+------------
-----26/45------1
-----16/26------------1
-----16/18------------------------(dupe-line)------
-----10/16------1
Under-10------1------1
1-in-agriculture
-------------------------------------------
Casper------Yeothrs------Bucks------Mill------057------45+
----------------male------female
age-45+------------1------1
-----26/45------
-----16/26------------1
-----16/18------------------------(dupe-line)------
-----10/16------
Under-10------
1-in-agriculture
-------------------------------------------
Samuel------Yeathrs------Bucks------Rock------067------26/45
----------------male------female
age-45+------------------1
-----26/45------1------1
-----16/26------
-----16/18------------------------(dupe-line)------
-----10/16------1
Under-10------1
1-in-manufacturing
-------------------------------------------
Isaac------Yetter------Butler------Butler------139------26/45
----------------male------female
age-45+------------
-----26/45------1
-----16/26------------1
-----16/18------------------------(dupe-line)------
-----10/16------1
Under-10------1------1
1-in-agriculture------1-in-manufacturing
-------------------------------------------
Caleb------Yotter------Cambr------Conem------187------16/26------(YR2356)
----------------male------female
age-45+------------
-----26/45------
-----16/26------1------1
-----16/18------------------------(dupe-line)------
-----10/16------
Under-10------------1
1-in-agriculture
-------------------------------------------
David------Yotter------Cambr------Conem------187------16/26-------(YR235)
----------------male------female
age-45+------------1
-----26/45------------1
-----16/26------1
-----16/18------------------------(dupe-line)------
-----10/16------------2
Under-10------2------1
1-in-agriculture
-------------------------------------------
Henry------Yoder------Centr------Hlfmoo------190------26/45------(YR2613)
----------------male------female
age-45+------------
-----26/45------1------1
-----16/26------
-----16/18------------------------(dupe-line)------
-----10/16------
Under-10------2------2
1-in-agriculture
-------------------------------------------
Jacob------Yoder------Centr------Hlfmoo------190------26/45------(?YR2512)
----------------male------female
age-45+------------
-----26/45------1------1
-----16/26------1------?
-----16/18------1------------------(dupe-line)------
-----10/16------1------?
Under-10------1------4
3-in-agriculture
-------------------------------------------
Joseph-Jr-Yoder------Centr------Hlfmoo------190------26/45------(?YR2511)
----------------male------female
age-45+------------
-----26/45------1------1
-----16/26------1------2------
-----16/18------------------------(dupe-line)------
-----10/16------1------?
Under-10------2------3
2-in-agriculture
-------------------------------------------
Daniel------Yeathrs------Centr------Boggs------200------45+------(F)
----------------male------female
age-45+------------1------1
-----26/45------
-----16/26------2------2
-----16/18------------------------(dupe-line)------
-----10/16------2
Under-10------2
3-in-manufacturing
-------------------------------------------
Philip------Yerter------Centre------Pott------258------26/45
----------------male------female
age-45+------------
-----26/45------1------1
-----16/26------
-----16/18------------------------(dupe-line)------
-----10/16------
Under-10------1
-------------------------------------------
Julian------Yoder------Chest------WNant------221------16/26------(widow-of-Samuel)
----------------male------female
age-45+------------
-----26/45------------1
-----16/26------1
-----16/18------1------------------(dupe-line)------
-----10/16------1------1
Under-10------1------2
-------------------------------------------
Daniel------Yetter------Colum------Cata------016------26/45------(Y3)
----------------male------female
age-45+------------
-----26/45------1------1
-----16/26------1
-----16/18------------------------(dupe-line)------
-----10/16------
Under-10------------4
1-in-manufacturing
-------------------------------------------
David------Yoder------Colum------Cata------016------26/45------(OH1119-)
----------------male------female
age-45+------------
-----26/45------2
-----16/26------1------1
-----16/18------------------------(dupe-line)------
-----10/16------------1
Under-10------
3-in-manufacturing
-------------------------------------------
Jacob------Yetter------Colum------Cata------016------26/45------(Y2)
----------------male------female
age-45+------------
-----26/45------1------1
-----16/26------1
-----16/18------------------------(dupe-line)------
-----10/16------1------1
Under-10------1------2
2-in-agriculture
-------------------------------------------
John-Esq-Yetter------Colum------Cata------016------26/45------(Y1)
----------------male------female
age-45+------------
-----26/45------1------1
-----16/26------1
-----16/18------------------------(dupe-line)------
-----10/16------1
Under-10------1------1
2-in-manuafcturing
-------------------------------------------
Samuel--Jr-Yetter------Colum------Cata------016------45+------(Y)
----------------male------female
age-45+------------1
-----26/45------------1
-----16/26------
-----16/18------------------------(dupe-line)------
-----10/16------------1
Under-10------3------1
1-in-manufacturing
-------------------------------------------
Samuel------Yetters------Colum------Cata------016------45+
----------------male------female
age-45+------------1
-----26/45------1------1
-----16/26------------3
-----16/18------------------------(dupe-line)------
-----10/16------1
Under-10------
2-in-agriculture
-------------------------------------------
George------Yitter------Colum------Helm------026------16/26
----------------male------female
age-45+------------
-----26/45------
-----16/26------1------1
-----16/18------------------------(dupe-line)------
-----10/16------
Under-10------1
1-in-agriculture
-------------------------------------------
Joseph------Yater------Green------Wayne------327------16/26------(s/o-Andrew)
----------------male------female
age-45+------------
-----26/45------
-----16/26------1------1
-----16/18------------------------(dupe-line)------
-----10/16------
Under-10------1------1
-------------------------------------------
Andrew------Yater------Green------Centr------334------26/45------(s/o-Andrew)
----------------male------female
age-45+------------
-----26/45------1------
-----16/26------------2
-----16/18------------------------(dupe-line)------
-----10/16------
Under-10------1------2
1-in-agriculture
-------------------------------------------
Catherine-Yater------Green------Centr------334------45+------(w/o-Andrew)
----------------male------female
age-45+------------------1
-----26/45------
-----16/26------2
-----16/18------2------------------(dupe-line)------
-----10/16------2
Under-10------1
-------------------------------------------
John------Yater------Green------Centr------334------16/26------(s/o-Andrew)
----------------male------female
age-45+------------
-----26/45------
-----16/26------1------1
-----16/18------------------------(dupe-line)------
-----10/16------
Under-10------
-------------------------------------------
George------Yoder------Green------Jeff------352------16/26------(K3)
----------------male------female
age-45+------------
-----26/45------
-----16/26------1------1
-----16/18------------------------(dupe-line)------
-----10/16------
Under-10------
1-in-agriculture
-------------------------------------------
John------Yoder------Green------Jeff------353------16/26------(K2)
----------------male------female
age-45+------------
-----26/45------------
-----16/26------1------1------
-----16/18------------------------(dupe-line)------
-----10/16------
Under-10------2------
-------------------------------------------
Christian-Yoder------Hunt------Woodb------037------26/45
----------------male------female
age-45+------------
-----26/45------1
-----16/26------------1
-----16/18------------------------(dupe-line)------
-----10/16------
Under-10------------1
1-in-Agriculture
-------------------------------------------
Daniel------Yoder------Hunt------Hend------068------26/45------(YR1461)
----------------male------female
age-45+------------
-----26/45------1------1
-----16/26------------
-----16/18------------------------(dupe-line)------
-----10/16------
Under-10------2------2
1-in-agriculture
-------------------------------------------
Christian-Yoder------Hunt------Hend------070------16/26
----------------male------female
age-45+------------
-----26/45------
-----16/26------2------1
-----16/18------1------------------(dupe-line)------
-----10/16------
Under-10------------1
2-in-agriculture
-------------------------------------------
Daniel------Yoder------Hunt------WarMk------085------16/26
----------------male------female
age-45+------------
-----26/45------
-----16/26------1------1
-----16/18------------------------(dupe-line)------
-----10/16------
Under-10------
1-in-agriculture
-------------------------------------------
John------Yoder------Hunt------WarMk------085------45+
----------------male------female
age-45+------------1------1
-----26/45------1------1
-----16/26------------1
-----16/18------------------------(dupe-line)------
-----10/16------1
Under-10------1
2-in-agriculture
-------------------------------------------
Samuel------Yetter------Lanc------MtJoy------154------26/45
----------------male------female
age-45+------------
-----26/45------1------1
-----16/26------2------1
-----16/18------------------------(dupe-line)------
-----10/16------------1
Under-10------
-------------------------------------------
John------Yider------Lanc------MtJoy------161------16/26
----------------male------female
age-45+------------------1
-----26/45------
-----16/26------1
-----16/18------------------------(dupe-line)------
-----10/16------------2
Under-10------------2
-------------------------------------------
John------Yetter------Lanc------Rapho------172------26/45
----------------male------female
age-45+------------
-----26/45------1------
-----16/26------------1
-----16/18------------------------(dupe-line)------
-----10/16------1
Under-10------------1
-------------------------------------------
Elizabeth-Yetter------Lanc------Rapho------179------26/45------(desc.-Martin)
----------------male------female
age-45+------------
-----26/45------------1
-----16/26------------1
-----16/18------------------------(dupe-line)------
-----10/16------------
Under-10------1------1
-------------------------------------------
Daniel------Yoder------Lanc------Caern------204------26/45
----------------male------female
age-45+------------
-----26/45------1------1
-----16/26------
-----16/18------------------------(dupe-line)------
-----10/16------
Under-10------------2
1-in-manufacturing
-------------------------------------------
Jane------Yoder------Lanc------Salis------273------45+------(w/oYR142)
----------------male------female
age-45+------------------2
-----26/45------
-----16/26------
-----16/18------------------------(dupe-line)------
-----10/16------
Under-10------
-------------------------------------------
Christian-Yoder------Lanc------Salis------279------26/45------(?YR1424)
----------------male------female
age-45+------------
-----26/45------1------1
-----16/26------
-----16/18------------------------(dupe-line)------
-----10/16------1
Under-10------1
-------------------------------------------
John------Yoder------Lanc------Salis------281------45+
----------------male------female
age-45+------------1------1
-----26/45------
-----16/26------------1
-----16/18------------------------(dupe-line)------
-----10/16------1
Under-10------1
1-in-manufacturing
-------------------------------------------
Abraham--Jr------Yoder------Lehigh------UpSauc------199------26/45------(?YB134)
----------------male------female
age-45+------------
-----26/45------1------1
-----16/26------
-----16/18------------------------(dupe-line)------
-----10/16------1
Under-10------
1-in-agriculture
-------------------------------------------
Abraham--Sr------Yoder------Lehigh------UpSauc------199------45+------(YB13)
----------------male------female
age-45+------------1------1
-----26/45------
-----16/26------
-----16/18------------------------(dupe-line)------
-----10/16------
Under-10------
-------------------------------------------
Jacob-Jr------Yoder------Lehigh------UpSauc------199------26/45------(?YB117)
----------------male------female
age-45+------------
-----26/45------1
-----16/26------1------1
-----16/18------1------------------(dupe-line)------
-----10/16------1
Under-10------1------2
-------------------------------------------
Jacob-Sr------Yoder------Lehigh------UpSauc------199------26/45------(YB139)
----------------male------female
age-45+------------
-----26/45------1------1
-----16/26------
-----16/18------------------------(dupe-line)------
-----10/16------
Under-10------1------1
2-in-agriculture
-------------------------------------------
John-------Yoder------Lehigh------UpSauc------199------45+------(?YB113)
----------------male------female
age-45+------------1------1
-----26/45------------1
-----16/26------1------1
-----16/18------1------------------(dupe-line)------
-----10/16------2
Under-10------
4-in-agriculture
-------------------------------------------
Peter------Yoder------Lehigh------UpSauc------199------26/45------(?YB137)
----------------male------female
age-45+------------
-----26/45------1------1
-----16/26------------1
-----16/18------------------------(dupe-line)------
-----10/16------------1
Under-10------2------1
1-in-agriculture
-------------------------------------------
Henry------Yeader------Lycm------Wayn------095------45+
----------------male------female
age-45+------------1------2
-----26/45------
-----16/26------
-----16/18------------------------(dupe-line)------
-----10/16------------1
Under-10------
1-in-agriculture
-------------------------------------------
Henry------Yoder------Miff------Wayne------181------45+------(YR128)
----------------male------female
age-45+------------1------1
-----26/45------2
-----16/26------2------1
-----16/18------------------------(dupe-line)------
-----10/16------
Under-10------
4-in-agriculture
-------------------------------------------
Joseph------Yoder------Miff------Wayne------181------45+
----------------male------female
age-45+------------1------1
-----26/45------1
-----16/26------1------2
-----16/18------------------------(dupe-line)------
-----10/16------
Under-10------
1-in-agriculture
-------------------------------------------
Martha------Yutsey------Miff------Wayne------181------45+------
----------------male------female
age-45+------------------1
-----26/45------
-----16/26------
-----16/18------------------------(dupe-line)------
-----10/16------1
Under-10------
-------------------------------------------
Michael------Yutsey------Miff------Wayne------181------45+
----------------male------female
age-45+------------1------1
-----26/45------
-----16/26------------1
-----16/18------------------------(dupe-line)------
-----10/16------------2
Under-10------3------1
1-in-agriculture
-------------------------------------------
Christian-Yoder------Miff------Wayne------184------26/45
----------------male------female
age-45+------------
-----26/45------1------1
-----16/26------------2
-----16/18------------------------(dupe-line)------
-----10/16------1------1
Under-10------------2
2-in-agriculture
-------------------------------------------
Michael------Yoder------Miff------Union------190------45+------(YR164)
----------------male------female
age-45+------------1
-----26/45------------1
-----16/26------
-----16/18------------------------(dupe-line)------
-----10/16------
Under-10------1------1
1-in-agriculture
-------------------------------------------
Christian-------Yoder------Miff------Union------190------26/45
----------------male------female
age-45+------------
-----26/45------1------1
-----16/26------------1
-----16/18------------------------(dupe-line)------
-----10/16------1
Under-10------2------3
2-in-agriculture
-------------------------------------------
David------Yoder------Miff------Union------191------45+------(YR257)
----------------male------female
age-45+------------1------1
-----26/45------
-----16/26------
-----16/18------------------------(dupe-line)------
-----10/16------2
Under-10------1------2
2-in-agriculture
-------------------------------------------
John------Yoder------Miff------Union------191------45+
----------------male------female
age-45+------------1
-----26/45------1------1
-----16/26------------1
-----16/18------------------------(dupe-line)------
-----10/16------
Under-10------1------1
2-in-agriculture
-------------------------------------------
Peter------Yoder------Miff------Union------191------26/45------(YR1623)
----------------male------female
age-45+------------
-----26/45------1------1
-----16/26------1
-----16/18------------------------(dupe-line)------
-----10/16------
Under-10------
1-in-agriculture
-------------------------------------------
Christia------Yoder------Miff------Union------191------26/45
----------------male------female
age-45+------------
-----26/45------1
-----16/26------1------1
-----16/18------------------------(dupe-line)------
-----10/16------------1
Under-10------2------2
2-in-agriculture
-------------------------------------------
Christian-Yoder------Miff------Union------192------45+
----------------male------female
age-45+------------1------1
-----26/45------
-----16/26------1
-----16/18------------------------(dupe-line)------
-----10/16------------1
Under-10------1
-------------------------------------------
Christian-Yoder------Miff------Union------192------45+
----------------male------female
age-45+------------1------1
-----26/45------
-----16/26------1
-----16/18------------------------(dupe-line)------
-----10/16------------1
Under-10------1
-------------------------------------------
Christian-Yoder------Miff------Union------192------45+------(?YR268)
----------------male------female
age-45+------------1
-----26/45------------1
-----16/26------1------1
-----16/18------------------------(dupe-line)------
-----10/16------2------2
Under-10------3------1
-------------------------------------------
David------Yoder------Miff------Union------192------45+------(YR174)
----------------male------female
age-45+------------1
-----26/45------
-----16/26------1
-----16/18------------------------(dupe-line)------
-----10/16------1------1
Under-10------2------3
-------------------------------------------
Isaac------Yoder------Miff------Union------192------45+------(YRB4)
----------------male------female
age-45+------------1------1
-----26/45------
-----16/26------
-----16/18------------------------(dupe-line)------
-----10/16------
Under-10------
-------------------------------------------
Jacob------Yoder------Miff------Union------192------16/26------(YR1464?-or-YR1272)
----------------male------female
age-45+------------
-----26/45------
-----16/26------1------1
-----16/18------------------------(dupe-line)------
-----10/16------
Under-10------1------1
1-foriegner-not-naturalized
-------------------------------------------
Peter------Yoder------Miff------Union------192------45+------(YRB6)
----------------male------female
age-45+------------1
-----26/45------------1
-----16/26------2------2
-----16/18------------------------(dupe-line)------
-----10/16------------1
Under-10------3------2
2-in-agriculture
-------------------------------------------
David------Yoder------Miff------Derry------194------45+
----------------male------female
age-45+------------1------1
-----26/45------------1
-----16/26------1------1
-----16/18------------------------(dupe-line)------
-----10/16------------1
Under-10------1
2-in-agriculture
-------------------------------------------
John------Yoder------Miff------Derry------194------26/45
----------------male------female
age-45+------------
-----26/45------1
-----16/26------------1
-----16/18------------------------(dupe-line)------
-----10/16------
Under-10------2------2
1-foriegner-not-naturalized
-------------------------------------------
Jonathan-Yoder------Miff------Derry------194------16/26
----------------male------female
age-45+------------
-----26/45------
-----16/26------1------1
-----16/18------------------------(dupe-line)------
-----10/16------
Under-10------2------2
-------------------------------------------
Gideon------Yoder------Miff------Arma------198A------16/26
----------------male------female
age-45+------------------1
-----26/45------------1
-----16/26------2------1------
-----16/18------------------------(dupe-line)------
-----10/16------
Under-10------------1
2-in-agriculture
-------------------------------------------
Jacob------Yoder------Miff------Arma------198A------45+
----------------male------female
age-45+------------1------1
-----26/45------1
-----16/26------3------2
-----16/18------------------------(dupe-line)------
-----10/16------------1
Under-10------1------1
4-in-agriculture
-------------------------------------------
Jacob------Yeater------Miff------Decatur------204------45+
----------------male------female
age-45+------------1------1
-----26/45------
-----16/26------1------2
-----16/18------------------------(dupe-line)------
-----10/16------1
Under-10------1
2-in-agriculture
-------------------------------------------
John------Yeater------Miff------Decatur------204------16/26
----------------male------female
age-45+------------
-----26/45------
-----16/26------1------1
-----16/18------------------------(dupe-line)------
-----10/16------
Under-10------2
1-in-agriculture
-------------------------------------------
John------Yeager------Miff------Decatur------204------45+
----------------male------female
age-45+------------1
-----26/45------1------1
-----16/26------1
-----16/18------------------------(dupe-line)------
-----10/16------------2
Under-10------3------2
1-in-agriculture
-------------------------------------------
Ludwick------Yeater------Miff------Decatur------204------45+
----------------male------female
age-45+------------1
-----26/45------------1
-----16/26------1------2
-----16/18------------------------(dupe-line)------
-----10/16------2------1
Under-10------1------2
3-in-agriculture
-------------------------------------------
Philip------Yeater------Miff------Decatur------204------26/45
----------------male------female
age-45+------------
-----26/45------1------1
-----16/26------
-----16/18------------------------(dupe-line)------
-----10/16------
Under-10------------1
1-in-agriculture
-------------------------------------------
Ann------Yetter------Mont------Plym------090------45+------(w/o-Lewis)
----------------male------female
age-45+------------------1
-----26/45------
-----16/26------
-----16/18------------------------(dupe-line)------
-----10/16------1
Under-10------
-------------------------------------------
John------Yetter------Mont------Whtmsh------256------26/45
----------------male------female
age-45+------------
-----26/45------2------1
-----16/26------2
-----16/18------2------------------(dupe-line)------
-----10/16------------1
Under-10------4------1
3-in-agriculture-1-in-manufacturing
-------------------------------------------
John-L-B-Yetter------Mont------Whtmsh------256------45+
----------------male------female
age-45+------------1------2
-----26/45------
-----16/26------
-----16/18------------------------(dupe-line)------
-----10/16------
Under-10------1------1
1-in-manufacturing
-------------------------------------------
Margaret-Yetter------Mont------UpMer------276------26/45
----------------male------female
age-45+------------
-----26/45------------1
-----16/26------
-----16/18------------------------(dupe-line)------
-----10/16------
Under-10------1
-------------------------------------------
Abraham-Yetter------N'mptn------Smthfld------290------16/26
----------------male------female
age-45+------------
-----26/45------------1
-----16/26------1
-----16/18------------------------(dupe-line)------
-----10/16------------3
Under-10------------3
1-in-agriculture,-1-in-manufacturing
-------------------------------------------
John------Yetter------N'mptn------Smthfld------290------16/26
----------------male------female
age-45+------------
-----26/45------------1
-----16/26------1
-----16/18------------------------(dupe-line)------
-----10/16------1
Under-10------2------2
1-in-agriculture
-------------------------------------------
Joseph------Yetter------N'mptn------UpMtB------299------45+
----------------male------female
age-45+------------2
-----26/45------1------1
-----16/26------1------1
-----16/18------1------------------(dupe-line)------
-----10/16------1------1
Under-10------1------2
3-in-agriculture,-1-in-manufacturing
-------------------------------------------
David------Yates------Phila------Swrk------095------26/45
----------------male------female
age-45+------------
-----26/45------1------1
-----16/26------
-----16/18------------------------(dupe-line)------
-----10/16------------1
Under-10------2------1
-------------------------------------------
John------Yetter------Pike------mixed------020------45+
----------------male------female
age-45+------------1------1
-----26/45------
-----16/26------2------1
-----16/18------------------------(dupe-line)------
-----10/16------
Under-10------------1
5-in-agriculture
-------------------------------------------
George------Yoder------Schyl------UpMah------092------26/45------(OH1328)
----------------male------female
age-45+------------
-----26/45------1
-----16/26------------1
-----16/18------------------------(dupe-line)------
-----10/16------
Under-10------1------2
1-in-agriculture
-------------------------------------------
Jeremiah-Yoder------Schyl------UpMah------092------16/26------(OH1334)
----------------male------female
age-45+------------
-----26/45------
-----16/26------1------1
-----16/18------------------------(dupe-line)------
-----10/16------1
Under-10------2
2-in-agriculture
-------------------------------------------
Solomon-Yoder------Schyl------UpMah------092------16/26------(OH1337)
----------------male------female
age-45+------------
-----26/45------
-----16/26------1------1
-----16/18------------------------(dupe-line)------
-----10/16------
Under-10------1
-------------------------------------------
Abraham-Yoder------Schyl------UpMah------096------26/45------(OH1325)
----------------male------female
age-45+------------
-----26/45------1------1
-----16/26------------
-----16/18------------------------(dupe-line)------
-----10/16------1------1
Under-10------2------3
-------------------------------------------
Anthony-Yoder------Schyl------UpMah------096------26/45------(OH1331)
----------------male------female
age-45+------------
-----26/45------1------1
-----16/26------
-----16/18------------------------(dupe-line)------
-----10/16------
Under-10------1------5
1-in-agriculture
-------------------------------------------
Peter------Yoder------Schyl------UpMah------096------45+------(OH133)
----------------male------female
age-45+------------1------1
-----26/45------
-----16/26------------2
-----16/18------------------------(dupe-line)------
-----10/16------------1
Under-10------
-------------------------------------------
Abraham-Yoder------Schyl------Norw------126------45+
----------------male------female
age-45+------------1------1
-----26/45------
-----16/26------
-----16/18------------------------(dupe-line)------
-----10/16------1------1------
Under-10------1
-------------------------------------------
Jacob------Yoder------Som------BroVal------135------45+
----------------male------female
age-45+------------1
-----26/45------
-----16/26------1------2
-----16/18------1------------------(dupe-line)------
-----10/16------
Under-10------1
2-in-agriculture
-------------------------------------------
Christian-Yoder------Som------StoCrk------136------26/45------(YR2337)
----------------male------female
age-45+------------
-----26/45------1
-----16/26------1------1
-----16/18------------------------(dupe-line)------
-----10/16------1
Under-10------3------2
2-in-agriculture
-------------------------------------------
Jacob------Yoder------Som------StoCrk------137------45+------(YR234)
----------------male------female
age-45+------------1
-----26/45------------1
-----16/26------------
-----16/18------------------------(dupe-line)------
-----10/16------1------1
Under-10------2------2
2-in-agriculture
-------------------------------------------
John-------Yoder------Som------StoCrk------137------26/45------(YR1211)
----------------male------female
age-45+------------
-----26/45------2------1
-----16/26------------
-----16/18------------------------(dupe-line)------
-----10/16------
Under-10------1------3
2-in-agriculture,-1-foriegner-not-naturalized
-------------------------------------------
Jonathan-Yoder------Som------StoCrk------137------45+------(YR237)
----------------male------female
age-45+------------1
-----26/45------------1
-----16/26------
-----16/18------------------------(dupe-line)------
-----10/16------1------1
Under-10------------3
1-in-agriculture
-------------------------------------------
Christian-Jr-Yoder------Som------StoCrk------138------45+------(YR233)
----------------male------female
age-45+------------1------1
-----26/45------
-----16/26------
-----16/18------------------------(dupe-line)------
-----10/16------1------1
Under-10------
2-in-agriculture
-------------------------------------------
Christian-Yoder------Som------StoCrk------138------16/26------(YR2344)
----------------male------female
age-45+------------
-----26/45------------1
-----16/26------1------
-----16/18------------------------(dupe-line)------
-----10/16------1------
Under-10------4
2-in-agriculture
-------------------------------------------
John-Sr------Yoder------Som------StoCrk------138------45+------(YR239)
----------------male------female
age-45+------------1------1
-----26/45------
-----16/26------4------1
-----16/18------1------------------(dupe-line)------
-----10/16------1------2
Under-10------3
6-in-agriculture
-------------------------------------------
Solomon-Yoder------Som------StoCrk------138------26/45------(YR2338)
----------------male------female
age-45+------------
-----26/45------1
-----16/26------------1
-----16/18------------------------(dupe-line)------
-----10/16------
Under-10------2------1
1-in-agriculture
-------------------------------------------
Yost------Yoder------Som------StoCrk------138------26/45------
----------------male------female
age-45+------------
-----26/45------1
-----16/26------1------1
-----16/18------------------------(dupe-line)------
-----10/16------
Under-10------------2
2-in-agriculture,-1-foriegner-not-naturalized
-------------------------------------------
Joseph------Yoder------Som------Conem------143------26/45------(?YR2345)
----------------male------female
age-45+------------
-----26/45------1------1
-----16/26------
-----16/18------------------------(dupe-line)------
-----10/16------
Under-10------3------1
1-in-agriculture
-------------------------------------------
Joseph------Yoder------Som------Conem------143------26/45------
----------------male------female
age-45+------------
-----26/45------1------1
-----16/26------
-----16/18------------------------(dupe-line)------
-----10/16------1
Under-10------------2
2-in-agriculture
-------------------------------------------
Jephat------Yoder------Som------Jenner------150------26/45------(YR23d)
----------------male------female
age-45+------------
-----26/45------1------1
-----16/26------
-----16/18------------------------(dupe-line)------
-----10/16------
Under-10------4------2
1-in-agriculture
-------------------------------------------
Joseph------Yoder------Som------Elklk------219---------------
----------------male------female
age-45+------------
-----26/45------have-no-data-
-----16/26------
-----16/18------------------------(dupe-line)------
-----10/16------
Under-10------
-------------------------------------------
Henry------Yoder------Som------Elklk------237------45+------(YR261)
----------------male------female
age-45+------------1------1
-----26/45------
-----16/26------2------1
-----16/18------------------------(dupe-line)------
-----10/16------------1
Under-10------
2-in-agriculture
-------------------------------------------
Yost------Yoder------Som------Elklk------237------26/45------(YR2611)
----------------male------female
age-45+------------
-----26/45------1------2
-----16/26------
-----16/18------------------------(dupe-line)------
-----10/16------2------1
Under-10------5------1
3--in-agriculture
-------------------------------------------
Elizabeth-------------Union------Centre------051------?------
----------------male------female
age-45+------------
-----26/45------
-----16/26------
-----16/18------------------------(dupe-line)------
-----10/16------
Under-10------
-------------------------------------------
John------Yotter------Union------Centre------059------45+------(M2)
----------------male------female
age-45+------------1------1
-----26/45------
-----16/26------------1
-----16/18------------------------(dupe-line)------
-----10/16------1
Under-10------
-------------------------------------------
David------Yoder------Union------WhtDr------072------26/45------(OH134------)
----------------male------female
age-45+------------
-----26/45------1
-----16/26------
-----16/18------------------------(dupe-line)------
-----10/16------3
Under-10------3------2
-------------------------------------------
Samuel------Yoder------Union------WhtDr------072------26/45------(OY413)
----------------male------female
age-45+------------
-----26/45------1------1
-----16/26------
-----16/18------------------------(dupe-line)------
-----10/16------1
Under-10------2------2
-------------------------------------------
Jacob------Yoder------Wash------E-Bethl------246------45+------(K)
----------------male------female
age-45+------------1
-----26/45------
-----16/26------3------1
-----16/18------1------------------(dupe-line)------
-----10/16------2
Under-10------3
5-in-agriculture,-2-in-manufacturing
-------------------------------------------
John------Yeatey------Westm------MtPl------128------45+
----------------male------female
age-45+------------1------1
-----26/45------
-----16/26------
-----16/18------------------------(dupe-line)------
-----10/16------
Under-10------
-------------------------------------------
Henry------Yeathers-Westm------MtPl------132------45+------(YB214)
----------------male------female
age-45+------------1------1
-----26/45------
-----16/26------
-----16/18------------------------(dupe-line)------
-----10/16------2------1
Under-10------2------3
1-in-agriculture
-------------------------------------------
Daniel------Yeoter------Westm------Alleg------160------16-26
----------------male------female
age-45+------------
-----26/45------
-----16/26------1------1
-----16/18------------------------(dupe-line)------
-----10/16------
Under-10------
1-in-agriculture
-------------------------------------------
Widow------Yeoter------Westm------Alleg------160------45+
----------------male------female
age-45+------------------1
-----26/45------------2
-----16/26------
-----16/18------------------------(dupe-line)------
-----10/16------
Under-10------



Back to INDEX Back to CONTENTS

Yoder Newsletter - © Christopher K. Yoder, 1992, 1994