Search billions of records on Ancestry.com

Back to INDEX Back to CONTENTS

Yoder Census Records

Compiled by the Yoder Newsletter

CENSUS RECORDS FOR YODER FAMILIES IN PENNSYLVANIA-1830


- These records were originally assembled in 1991 by Dorothy Yoder Coffman, 30 Grouse Road, Malvern, Pa, 19355-2208. They have been retyped from her hardcopy and are presented with her permission by the Yoder Newsletter. The Yoder Newsletter has also added the identification number for those heads of household whose identity is know. These codes relate to the family groups which have been archived elsewhere.--
Chris Yoder



"NOTES TO THE USER: All possible spellings of this name were included to allow for human error in the hearing, spelling or transcribing of the name."The information contained here was taken from the printed texts, indexes and microfilm found at the branch of the national Archives in Philadelphia, Pennsylvania.
The term 'printed index(s)' refers to those volumes generated by commercial or private groups, and these can be found at the National Archive branches and in many genealogical libraries. These printed indexes contain mistakes and omissions, and the
sorted indexes generated for this volume reflects these errors - just as they were found. The information in the census records is shown exactly as it appeared on the microfilm.
"Some of the microfilm used was of poor quality and often the writing was open to question. An asterisk after a given name is used to indicate doubt about the name. Every attempt was made to be as accurate in the transcribing as possible.
"The indexes for these census records have been sorted two ways -- by county and by given name to allow the researcher to locate a given person or locality quickly. --
Dorothy Yoder Coffman--1985.


YODERS IN 1830 PA CENSUS-NAME SEQUENCE
------------TOTAL
first------last------county------twp------page------age

Abraha------Yoder------Berks------Earl------438------60/70
Abraha------Yoder------Berks------Tulp------220------60/70
Abraha------Yeathrs------Bucks------Sole------021------40/50
Abraha------Yeoder------Bucks------Spring------235------20/30
Abraha------Yutter------Lehi------UpSauc------038------40/50
Abraha------Yoter------Mont------Franc------198------40/50
Abraha------Yoter------Mont------UpHan------184------20/30
Abraha------Yader------Union------Hertl------296------20/30
Amos------Yoder------Berks------Tulp------221------20/30
Anthny------Yoder------Schyl------UpMoh------068------40/50
Barbara------Yoder------Som------StCrk------069------50/60
Benjmn------Yoder------Miff------Grnwd------407------30/40
Benjmn------Yetter------N'umb------Chill------151------20/30
Caleb------Yoder------Cambr------Conem------172------30/40
Cathrn------Yoder------Berks------Oley------446------40/50------widow
Charlot------Yoder------Berks------Oley------446------40/50------widow
Christia------Yortey------Arms------SgrCk------252------30/40
Christia------Yoder------Miff------Union------459------50/60
Christia------Yoder------Miff------Union------468------40/50
Christia------Yoder------Miff------Union------461------20/30
Christia------Yoder------Miff------Wayne------421------30/40
Christia------Yoder------Som------StCrk------070------40/50-------(of-Jacob)
Christia------Yoder------Som------StCrk------069------30/40------(of-Chris)
Christia------Yoder------Som------StCrk------069------60/70
Christly------Yoder------Miff------Union------464------40/50
Christly------Yoder------Miff------Union------468------30/40
Christly------Yoder------Miff------Union------468------60/70
Daniel------Yeager------Berks------Hemb------368------50/60
Daniel------Yoder------Cambr------Conem------172------30/40
Daniel------Yother------Centre------Boggs------452------50/60
Daniel------Yoder------Hunt------Hend------134------40/50
Daniel------Yoder------Lanc------Caern------182------40/50
Daniel------Yoder------Miff------Wayne------421------30/40
Daniel------Yoder------Schyl------Manhm------056------30/40
Daniel------Yeller------West------Alle------220------30/40
David------Yon/der------Berks------Colb------464------30/40
David------Yoder------Berks------Oley------446------40/50
David------Yoder------Berks------Tulp------220------30/40
David------Yeothrs------Bucks--------Nbrit------065------60/70
David------Yoder------Cambr------Conem------177------60/70
David------Yoder------Hunt------Hend------134------20/30
David------Yoder------Miff------Union------459------40/50
David------Yoder------Miff------Union------462------40/50
David------Yoder------Som------Som------093------20/30
Elijah------Yoder------Schyl------Wayne------075------20/30
Elizabet------Yoder------Schyl------UpMoh------069------30/40
Emnuel------Yetter------Lanc------Warw------369------30/40
George------Yuter------Bedf------Air------008------20/30
George------Yoder------Berks------Earl------440------20/30
George------Yoder------Berks------Oley------446------70/80
George------Yeaders------Green------Morg------439------40/50
George------Yetter------Pike------____------029------20/30
George------Yoder------Schyl------Manhm------056------30/40
George------Yeoters------Vena------Chry------034------30/40
Gideon------Yoder------Miff------Armgh------445------30/40
Henry------Yeoder------Bucks------Rock------286------15/20
Henry------Yoder------Centre------Hlfmn------439------40/50
Henry------Yeider------Lycm------Wayne------223------50/60
Henry------Yetter------N'ampt------Ham------182------30/40
Henry------Yader------Union------Hertl------296------50/60
Henry------Yoder------West------MtPls------269------50/60
Isaac------Yoder------Berks------Oley------446------20/30
Isaac------Yeater------Butl------Butl------008------30/40
Isaac------Yoder------Miff------Union------459------20/30
J.M.------Yeider------Phila------SWark------386------40/50
Jacob------Yater------Alleg------Pitts------115------20/30
Jacob------Yoder------Berks------Rock------457------30/40
Jacob------Yoder------Berks------Rock------456------50/60
Jacob------Yoder------Berks------Tulp------221------20/30
Jacob------Yoder------Berks------UpBern------172------50/60
Jacob------Yeothrs------Bucks------Doyles------092------40/50
Jacob------Yotter------Fay------Sltlk------298------20/30
Jacob------Yeoders------Green------Morg------440------50/60
Jacob------Yoder------Hunt------Hend------133------30/40
Jacob------Yoder------Lanc------Stras------442------40/50
Jacob------Yutter------Lehi------UpSauc------038------40/50
Jacob------Yeater------Miff------Decatr------494------30/40
Jacob------Yoter------Mont------UpHan------184------20/30
Jacob------Yeater------Phila------Phila------040------30/40
Jacob------Yoder------Som------BroVl------059------80/90
Jacob------Yoder------Som------Elklk------038------30/40
Jacob------Yoder------Som------Elklk------038------30/40
Jacob------Yoder------Union------Buff------344------10/15
Jacob-D.------Yoder------Berks------Rock------457------50/60
Jacob-Jr------Yutter------Lehi------UpSauc------038------30/40
Jepftha------Yoder------Som------Caven------105------40/50
Jermiah------Yoder------Schyl------UpMoh------069------30/40
Joab------Yeater------Miff------Decatr------495------50/60
Joel------Yoder------Som------Caven------105------20/30
John------Yoder------Berks------Maxa------409------70/80
John------Yoder------Berks------UpBern------172------50/60
John------Yeder------Berks------UpBks------172------50/60
John------Yoler------Centre------Hlfmn------438------20/30
John------Yoder------Chest------WNan------201------20/30
John------Yetter------Cumb------Smidd------034------50/60
John------Yeoders------Green------Jeff------324------30/40
John------Yetter------Lanc------MtJoy------100------30/40
John------Yutter------Lehi------UpSauc------038------50/60
John------Yoder------Miff------Armgh------446------40/50
John------Yeater------Miff------Decatr------493------20/30
John------Yoder------Miff------Union------458------30/40
John------Yoder------Miff------Union------465------40/50
John------Yoder------Miff------Wayne------417------40/50
John------Yoter------Mont------Franc------198------30/40
John------Yeter------Phila------4-ward------090------50/60
John------Yoller------Phila------Phila------064------70/80
John------Yoder------Som------StCrk------069------50/60
John------Yoder------Union------Centre------357------60/70
John-Jr------Yoder------Berks------Maxa------409------30/40
John-Jr------Yoder------Lanc------Stras------442------20/30
John-Jr------Yoder------Som------StCrk------070------40/50------------
John-Sr------Yoder------Lanc------Stras------442------60/70
Joll?------Yoder------Centre------Hlfmn------440------30/40
Jonas------Yoder------Cambr------Conem------172------30/40
Jonatha------Yoler------Centre------Hlfmn------438------20/30
Jonatha------Yoder------Som------StCrk------069------60/70
Jonatha------Yoder------Som------StCrk------070------20/30
Joseph------Yoder------Centre------Hlfmn------440------50/60
Joseph------Yoder------Centre------Hlfmn------440------50/60
Joseph------Yothers------Clrf------Covn------239------30/40
Joseph------Yotter------Colum------Cata------161------30/40
Joseph------Yoder------Miff------Union------460------30/40
Joseph------Yetter------N'ampt------L.Naz------071------30/40
Joseph------Yoder------Som------Elklk------038------40/50
Joseph------Yoder------Som------Caven------103------40/50
Joseph------Yoder------Som------Caven------104------30/40
Joshua------Yoder------Union------WhtDr------262------20/30
Juliana------Yoder------Berks------Roben------506------40/50
Kathrn------Yeater------Green------Wayne------382------30/40
Lewis------Yetter------Lanc------Warw------369------20/30
Lewis------Yetter------Mont------Plym------222------20/30
Ludwick------Yeater------Miff------Decatr------494------50/60
Ludwick------Yeater------Miff------Decatr------495------20/30
Ludwick------Yeater------Miff------Decatr------493------40/50
Lydia------Yeater------Green------Wayne------384------30/40
Margrt------Yoder------Berks------Oley------446------70/80------(widow)
Martin------Yoder------Berks------Oley------446------40/50
Mary------Yoder------Lanc------Salis------251------50/60
Mary------Yoder------Lanc------Salis------256------50/60
Michael------Yoder------Miff------Union------459------60/70
Michael------Yoder------Som------Caven------103------40/50
Moses------Yoder------Miff------Union------461------20/30
Nancy------Yoder------Miff------Union------467------30/40
Nichlas------Yoder------Lanc------Salis------248------40/50
Peter------Yoder------Miff------Grnwd------406------40/50
Peter------Yoder------Miff------Union------468------40/50
Peter------Yetter------Phila------7-ward------196------20/30
Peter------Yoder------Schyl------UpMoh------068------60/70
Peter------Yoder------Som------BroVl------059------30/40
Philip------Yeater------Miff------Union------464------40/50
Phillip------Yoder------Som------StCrk------069------20/30
Saml-Jr------Yoder------Union------WhtDr------262------20/30
Samuel------Yoder------Berks------UpBern------172------15/20
Samuel------Yeoder------Bucks------Rock------285------30/40
Samuel------Yotler------Colum------Cata------163------40/50
Samuel------Yetter------Lanc------MtJoy------096------30/40
Samuel------Yoder------Miff------Union------460------20/30
Samuel------Yoder------Som------StCrk------070------20/30
Samuel------Yoder------Union------WhtDr------262------40/50
Sarah------Yetter------Phila------6-ward------168------60/70
Solomo------Yoder------Miff------Armgh------445------60/70
Solomo------Yoder------Miff------Wayne------421------30/40
Solomo------Yoder------Schyl------UpMoh------069------20/30
Stephen------Yoder------Som------Elklk------038------20/30
Susanna------Yeller------West------Alle------220------70/80
William------Yoder------Berks------Oley------446------40/50
William------Yeater------Green------Wayne------382------20/30
William------Yoder------Lanc------Caern------181------20/30
Wm-B------Yetter------Lanc------Colum------309------20/30
Yost------Yoder------Som------Elklk------038------40/50
Yost------Yoder------Som------StCrk------069------30/40
-------------------------------------------
YODERS-IN-1830-PA-CENSUS-COUNTY-SEQUENCE
------------TOTAL
first------last------county------twp------page------age

Jacob------Yater------Alleg------Pitts------115------20/30
Christia------Yortey------Arms------SgrCk------252------30/40
George------Yuter------Bedf------Air------008------20/30
David------Yon/der------Berks------Colb------464------30/40
Abraha------Yoder------Berks------Earl------438------60/70
George------Yoder------Berks------Earl------440------20/30
Daniel------Yeager------Berks------Hemb------368------50/60
John------Yoder------Berks------Maxa------409------70/80
John-Jr------Yoder------Berks------Maxa------409------30/40
Cathrn------Yoder------Berks------Oley------446------40/50------widow
Charlot------Yoder------Berks------Oley------446------40/50------widow
David------Yoder------Berks------Oley------446------40/50
George------Yoder------Berks------Oley------446------70/80
Isaac------Yoder------Berks------Oley------446------20/30
Margrt------Yoder------Berks------Oley------446------70/80------(widow)
Martin------Yoder------Berks------Oley------446------40/50
William------Yoder------Berks------Oley------446------40/50
Juliana------Yoder------Berks------Roben------506------40/50
Jacob-D.------Yoder------Berks------Rock------457------50/60
Jacob------Yoder------Berks------Rock------457------30/40
Jacob------Yoder------Berks------Rock------456------50/60
Abraha------Yoder------Berks------Tulp------220------60/70
Amos------Yoder------Berks------Tulp------221------20/30
David------Yoder------Berks------Tulp------220------30/40
Jacob------Yoder------Berks------Tulp------221------20/30
Jacob------Yoder------Berks------UpBern------172------50/60
John------Yoder------Berks------UpBern------172------50/60
Samuel------Yoder------Berks------UpBern------172------15/20
John------Yeder------Berks------UpBks------172------50/60
Jacob------Yeothrs------Bucks------Doyles------092------40/50
David------Yeothrs------Bucks--------Nbrit------065------60/70
Henry------Yeoder------Bucks------Rock------286------15/20
Samuel------Yeoder------Bucks------Rock------285------30/40
Abraha------Yeathrs------Bucks------Sole------021------40/50
Abraha------Yeoder------Bucks------Spring------235------20/30
Isaac------Yeater------Butl------Butl------008------30/40
Caleb------Yoder------Cambr------Conem------172------30/40
Daniel------Yoder------Cambr------Conem------172------30/40
David------Yoder------Cambr------Conem------177------60/70
Jonas------Yoder------Cambr------Conem------172------30/40
Daniel------Yother------Centre------Boggs------452------50/60
Henry------Yoder------Centre------Hlfmn------439------40/50
John------Yoler------Centre------Hlfmn------438------20/30
Joll?------Yoder------Centre------Hlfmn------440------30/40
Jonatha------Yoler------Centre------Hlfmn------438------20/30
Joseph------Yoder------Centre------Hlfmn------440------50/60
Joseph------Yoder------Centre------Hlfmn------440------50/60
John------Yoder------Chest------WNan------201------20/30
Joseph------Yothers------Clrf------Covn------239------30/40
Joseph------Yotter------Colum------Cata------161------30/40
Samuel------Yotler------Colum------Cata------163------40/50
John------Yetter------Cumb------Smidd------034------50/60
Jacob------Yotter------Fay------Sltlk------298------20/30
John------Yeoders------Green------Jeff------324------30/40
George------Yeaders------Green------Morg------439------40/50
Jacob------Yeoders------Green------Morg------440------50/60
Kathrn------Yeater------Green------Wayne------382------30/40
Lydia------Yeater------Green------Wayne------384------30/40
William------Yeater------Green------Wayne------382------20/30
Daniel------Yoder------Hunt------Hend------134------40/50
David------Yoder------Hunt------Hend------134------20/30
Jacob------Yoder------Hunt------Hend------133------30/40
Daniel------Yoder------Lanc------Caern------182------40/50
William------Yoder------Lanc------Caern------181------20/30
Wm-B------Yetter------Lanc------Colum------309------20/30
John------Yetter------Lanc------MtJoy------100------30/40
Samuel------Yetter------Lanc------MtJoy------096------30/40
Mary------Yoder------Lanc------Salis------251------50/60
Mary------Yoder------Lanc------Salis------256------50/60
Nichlas------Yoder------Lanc------Salis------248------40/50
Jacob------Yoder------Lanc------Stras------442------40/50
John-Jr------Yoder------Lanc------Stras------442------20/30
John-Sr------Yoder------Lanc------Stras------442------60/70
Emnuel------Yetter------Lanc------Warw------369------30/40
Lewis------Yetter------Lanc------Warw------369------20/30
Abraha------Yutter------Lehi------UpSauc------038------40/50
Jacob------Yutter------Lehi------UpSauc------038------40/50
Jacob-Jr------Yutter------Lehi------UpSauc------038------30/40
John------Yutter------Lehi------UpSauc------038------50/60
Henry------Yeider------Lycm------Wayne------223------50/60
Gideon------Yoder------Miff------Armgh------445------30/40
John------Yoder------Miff------Armgh------446------40/50
Solomo------Yoder------Miff------Armgh------445------60/70
Jacob------Yeater------Miff------Decatr------494------30/40
Joab------Yeater------Miff------Decatr------495------50/60
John------Yeater------Miff------Decatr------493------20/30
Ludwick------Yeater------Miff------Decatr------494------50/60
Ludwick------Yeater------Miff------Decatr------495------20/30
Ludwick------Yeater------Miff------Decatr------493------40/50
Philip------Yeater------Miff------Union------464------40/50
Benjmn------Yoder------Miff------Grnwd------407------30/40
Peter------Yoder------Miff------Grnwd------406------40/50
Christia------Yoder------Miff------Union------459------50/60
Christia------Yoder------Miff------Union------468------40/50
Christia------Yoder------Miff------Union------461------20/30
Christly------Yoder------Miff------Union------464------40/50
Christly------Yoder------Miff------Union------468------30/40
Christly------Yoder------Miff------Union------468------60/70
David------Yoder------Miff------Union------459------40/50
David------Yoder------Miff------Union------462------40/50
Isaac------Yoder------Miff------Union------459------20/30
John------Yoder------Miff------Union------458------30/40
John------Yoder------Miff------Union------465------40/50
Joseph------Yoder------Miff------Union------460------30/40
Michael------Yoder------Miff------Union------459------60/70
Moses------Yoder------Miff------Union------461------20/30
Nancy------Yoder------Miff------Union------467------30/40
Peter------Yoder------Miff------Union------468------40/50
Samuel------Yoder------Miff------Union------460------20/30
Christia------Yoder------Miff------Wayne------421------30/40
Daniel------Yoder------Miff------Wayne------421------30/40
John------Yoder------Miff------Wayne------417------40/50
Solomo------Yoder------Miff------Wayne------421------30/40
Abraha------Yoter------Mont------Franc------198------40/50
John------Yoter------Mont------Franc------198------30/40
Lewis------Yetter------Mont------Plym------222------20/30
Abraha------Yoter------Mont------UpHan------184------20/30
Jacob------Yoter------Mont------UpHan------184------20/30
Henry------Yetter------N'ampt------Ham------182------30/40
Joseph------Yetter------N'ampt------L.Naz------071------30/40
Benjmn------Yetter------N'umb------Chill------151------20/30
John------Yeter------Phila------4-ward------090------50/60
Sarah------Yetter------Phila------6-ward------168------60/70
Peter------Yetter------Phila------7-ward------196------20/30
Jacob------Yeater------Phila------Phila------040------30/40
John------Yoller------Phila------Phila------064------70/80
J.M.------Yeider------Phila------SWark------386------40/50
George------Yetter------Pike------____------029------20/30
Daniel------Yoder------Schyl------Manhm------056------30/40
George------Yoder------Schyl------Manhm------056------30/40
Anthny------Yoder------Schyl------UpMoh------068------40/50
Elizabet------Yoder------Schyl------UpMoh------069------30/40
Jermiah------Yoder------Schyl------UpMoh------069------30/40
Peter------Yoder------Schyl------UpMoh------068------60/70
Solomo------Yoder------Schyl------UpMoh------069------20/30
Elijah------Yoder------Schyl------Wayne------075------20/30
Jacob------Yoder------Som------BroVl------059------80/90
Peter------Yoder------Som------BroVl------059------30/40
Jacob------Yoder------Som------Elklk------038------30/40
Jacob------Yoder------Som------Elklk------038------30/40
Joseph------Yoder------Som------Elklk------038------40/50
Stephen------Yoder------Som------Elklk------038------20/30
Yost------Yoder------Som------Elklk------038------40/50
David------Yoder------Som------Som------093------20/30
Jepftha------Yoder------Som------Caven------105------40/50
Joel------Yoder------Som------Caven------105------20/30
Joseph------Yoder------Som------Caven------103------40/50
Joseph------Yoder------Som------Caven------104------30/40
Michael------Yoder------Som------Caven------103------40/50
Barbara------Yoder------Som------StCrk------069------50/60
Christia------Yoder------Som------StCrk------070------40/50-------(of-Jacob)
Christia------Yoder------Som------StCrk------069------30/40------(of-Chris)
Christia------Yoder------Som------StCrk------069------60/70
John------Yoder------Som------StCrk------069------50/60
John-Jr------Yoder------Som------StCrk------070------40/50------------
Jonatha------Yoder------Som------StCrk------069------60/70
Jonatha------Yoder------Som------StCrk------070------20/30
Phillip------Yoder------Som------StCrk------069------20/30
Samuel------Yoder------Som------StCrk------070------20/30
Yost------Yoder------Som------StCrk------069------30/40
Jacob------Yoder------Union------Buff------344------10/15
John------Yoder------Union------Centre------357------60/70
Abraha------Yader------Union------Hertl------296------20/30
Henry------Yader------Union------Hertl------296------50/60
Joshua------Yoder------Union------WhtDr------262------20/30
Samuel------Yoder------Union------WhtDr------262------40/50
Saml-Jr------Yoder------Union------WhtDr------262------20/30
George------Yeoters------Vena------Chry------034------30/40
Daniel------Yeller------West------Alle------220------30/40
Susanna------Yeller------West------Alle------220------70/80
Henry------Yoder------West------MtPls------269------50/60
-------------------------------------------
-------------------------------------------
Jacob------Yater------Alleg------Pitts------115------40/50
------------male------female
-----------age-<5------
------5-10------------1
------10-15------1
------15-20
------20-30------1
------30-40
------40-50------1------1
------50-60
------60-70
------70-80
-------------------------------------------
Christia------Yortey------Arms------SgrCk------252------30/40
------------male------female
-----------age-<5------------
------5-10------
------10-15------2------1
------15-20------
------20-30------
------30-40------
------40-50------1------1
------50-60------
------60-70------
------70-80------
-------------------------------------------
George------Yuter------Bedf------Air------008------20/30
------------male------female
-----------age-<5------2------------
------5-10------
------10-15------
------15-20------
------20-30------2------1
------30-40------
------40-50------
------50-60------------1
------60-70------
------70-80------
-------------------------------------------
David------Yon/der------Berks------Colb------464------30/40
------------male------female
-----------age-<5------2------1
------5-10------1------2
------10-15------
------15-20------
------20-30------
------30-40------1------1
------40-50------
------50-60------
------60-70------
------70-80------
-------------------------------------------
Abraha------Yoder------Berks------Earl------438------60/70------(OH1325)
------------male------female
-----------age-<5------1------1
------5-10------2
------10-15------------1
------15-20------2------2
------20-30------1------
------30-40------
------40-50------1------1
------50-60------
------60-70------1
------70-80------
-------------------------------------------
George------Yoder------Berks------Earl------440------20/30
------------male------female
-----------age-<5------2------
------5-10------1------1
------10-15------
------15-20------
------20-30------2------2
------30-40------
------40-50------
------50-60------
------60-70------
------70-80------
-------------------------------------------
Daniel------Yeager------Berks------Hemb------368------50/60
------------male------female
-----------age-<5------------------
------5-10------1------1
------10-15------------1
------15-20------
------20-30------
------30-40------------1
------40-50------1
------50-60------1
------60-70------
------70-80------
-------------------------------------------
John------Yoder------Berks------Maxa------409------70/80------(OY43)
------------male------female
-----------age-<5------------
------5-10------1
------10-15------
------15-20------1------1
------20-30------1------1
------30-40------
------40-50------
------50-60------
------60-70------------1
------70-80------1
-------------------------------------------
John-Jr------Yoder------Berks------Maxa------409------30/40------(OY433)
------------male------female
-----------age-<5------1------1------
------5-10------
------10-15------------1
------15-20------
------20-30------1------1
------30-40------1
------40-50------
------50-60------
------60-70------
------70-80------
-------------------------------------------
Cathrine--Yoder------Berks------Oley------446------40/50------widow------(w/o-OH145)
------------male------female
-----------age-<5------------
------5-10------1
------10-15------1
------15-20------2
------20-30------1
------30-40------
------40-50------------1
------50-60------
------60-70------
------70-80------
--------------------------------------------------
Charlotte--Yoder------Berks------Oley------446------40/50------widow--(w/o-OY172)
------------male------female
-----------age-<5------------
------5-10------1
------10-15------1------1
------15-20------------1
------20-30------
------30-40------
------40-50------1------1
------50-60------
------60-70------
------70-80------
-------------------------------------------
David------Yoder------Berks------Oley------446------40/50------
------------male------female
-----------age-<5------------
------5-10------------2
------10-15------1------2
------15-20------2
------20-30------
------30-40------
------40-50------1------1
------50-60------
------60-70------
------70-80------
-------------------------------------------
George------Yoder------Berks------Oley------446------70/80------(OH132)
------------male------female
-----------age-<5------------
------5-10------
------10-15------
------15-20------
------20-30------
------30-40------
------40-50------
------50-60------
------60-70------
------70-80------1------1
-------------------------------------------
Isaac------Yoder------Berks------Oley------446------20/30------(OH1452)
------------male------female
-----------age-<5------------2
------5-10------
------10-15------------1
------15-20------------1
------20-30------1------1
------30-40------
------40-50------
------50-60------
------60-70------
------70-80------
-------------------------------------------
Margaret--Yoder------Berks------Oley------446------70/80------(widow)-(w/o-OH111)
------------male------female
-----------age-<5------1------------
------5-10------1------2
------10-15------------1
------15-20------1------1
------20-30------
------30-40------1------1
------40-50------1
------50-60------
------60-70------
------70-80------------1
-------------------------------------------
Martin------Yoder------Berks------Oley------446------40/50------(OH1113)
------------male------female
-----------age-<5------------
------5-10------
------10-15------
------15-20------------1
------20-30------
------30-40------
------40-50------1
------50-60------
------60-70------
------70-80------------1
-------------------------------------------
William------Yoder------Berks------Oley------446------40/50------(OH1321)
------------male------female
-----------age-<5------2------
------5-10------------3
------10-15------1
------15-20------1
------20-30------------1
------30-40------------1
------40-50------1
------50-60------
------60-70------
------70-80------
-------------------------------------------
Juliana------Yoder------Berks------Roben------506------40/50
------------male------female
-----------age-<5------------
------5-10------
------10-15------1------1
------15-20------
------20-30------
------30-40------
------40-50------------1
------50-60------
------60-70------
------70-80------
-------------------------------------------
Jacob-D.------Yoder------Berks------Rock------457------50/60------(?OY411)
------------male------female
-----------age-<5------2------1
------5-10------
------10-15------------1
------15-20------
------20-30------
------30-40------
------40-50------------1
------50-60------1
------60-70------
------70-80------
-------------------------------------------
Jacob------Yoder------Berks------Rock------457------30/40
------------male------female
-----------age-<5------------1------
------5-10------
------10-15------3
------15-20------------1
------20-30------1
------30-40------------1
------40-50------
------50-60------
------60-70------
------70-80------
-------------------------------------------
Jacob------Yoder------Berks------Rock------456------50/60------(OY45)
------------male------female
-----------age-<5------------3
------5-10------1------1
------10-15------1------2
------15-20------1------2
------20-30------------1
------30-40------1
------40-50------
------50-60------1------1
------60-70------
------70-80------
-------------------------------------------
Abraha------Yoder------Berks------Tulp------220------60/70
------------male------female
-----------age-<5------------
------5-10------
------10-15------
------15-20------
------20-30------
------30-40------
------40-50------
------50-60------------1
------60-70------1
------70-80------
-------------------------------------------
Amos------Yoder------Berks------Tulp------221------20/30------(?d1878-Darke-Co,OH)
------------male------female
-----------age-<5------------1
------5-10------
------10-15------------1
------15-20------
------20-30------1------1
------30-40------
------40-50------
------50-60------
------60-70------
------70-80------
-------------------------------------------
David------Yoder------Berks------Tulp------220------30/40
------------male------female
-----------age-<5------1------
------5-10------2------1
------10-15------1
------15-20------------1
------20-30------
------30-40------1
------40-50------
------50-60------
------60-70------
------70-80------
-------------------------------------------
Jacob------Yoder------Berks------Tulp------221------20/30------(AL)
------------male------female
-----------age-<5------------
------5-10------
------10-15------
------15-20------1
------20-30------1------2
------30-40------------1
------40-50------
------50-60------
------60-70------1
------70-80------
-------------------------------------------
Jacob------Yoder------Berks------UpBern------172------50/60
------------male------female
-----------age-<5------------1
------5-10------1
------10-15------1
------15-20------
------20-30------1------1
------30-40------
------40-50------
------50-60------1
------60-70------------1
------70-80------
-------------------------------------------
John------Yoder------Berks------UpBern------172------50/60------(YR177)
------------male------female
-----------age-<5------1------
------5-10------1
------10-15------1
------15-20------1
------20-30------1------1
------30-40------
------40-50------
------50-60------1------1
------60-70------
------70-80------
-------------------------------------------
Samuel------Yoder------Berks------UpBern------172------15/20------(YR1771)
------------male------female
-----------age-<5------------
------5-10------
------10-15------
------15-20------2------1
------20-30------
------30-40------
------40-50------
------50-60------
------60-70------
------70-80------
-------------------------------------------
John------Yeder------Berks------UpBks------172------50/60
------------male------female
-----------age-<5------1------
------5-10------1
------10-15------1
------15-20------1
------20-30------1------1
------30-40------
------40-50------
------50-60------1------1
------60-70------
------70-80------
-------------------------------------------
Jacob------Yeothers--Bucks------Doyles------092------40/50------(YB215)
------------male------female
-----------age-<5------1------1
------5-10------
------10-15------1
------15-20------1
------20-30------
------30-40------------1
------40-50------1
------50-60------
------60-70------
------70-80------
-------------------------------------------
David------Yeothers--Bucks--------Nbrit------065------60/70------(?YB211)
------------male------female
-----------age-<5------------
------5-10------1------2
------10-15------
------15-20------
------20-30------1
------30-40------
------40-50------------1
------50-60------
------60-70------1
------70-80------
-------------------------------------------
Henry------Yeoder------Bucks------Rock------286------15/20------(?YB247)
------------male------female
-----------age-<5------------
------5-10------
------10-15------
------15-20------1
------20-30------------1
------30-40------
------40-50------
------50-60------
------60-70------
------70-80------
-------------------------------------------
Samuel------Yeoder------Bucks------Rock------285------30/40------(YB244)
------------male------female
-----------age-<5------------
------5-10------1
------10-15------1
------15-20------
------20-30------
------30-40------1
------40-50------------1
------50-60------
------60-70------------1
------70-80------
-------------------------------------------
Abraham--Yeathers------Bucks------Sole------021------40/50------(YB216)
------------male------female
-----------age-<5------------3
------5-10------2
------10-15------1------2
------15-20------
------20-30------
------30-40------------1
------40-50------1
------50-60------
------60-70------
------70-80------
-------------------------------------------
Abraham--Yeoder------Bucks------Spring------235------20/30------
------------male------female
-----------age-<5------------
------5-10------------1
------10-15------
------15-20------
------20-30------1------1
------30-40------
------40-50------
------50-60------
------60-70------
------70-80------
-------------------------------------------
Isaac------Yeater------Butl------Butl------008------30/40
------------male------female
-----------age-<5------2------1
------5-10------------1
------10-15------2------1
------15-20------
------20-30------
------30-40------1------1
------40-50------
------50-60------
------60-70------
------70-80------
-------------------------------------------
Caleb------Yoder------Cambr------Conem------172------30/40------(YR2356)
------------male------female
-----------age-<5------2
------5-10------1------2
------10-15------1
------15-20------
------20-30------
------30-40------1------1
------40-50------
------50-60------
------60-70------
------70-80------
-------------------------------------------
Daniel------Yoder------Cambr------Conem------172------30/40------(YR2394)
------------male------female
-----------age-<5------2------2
------5-10------------1
------10-15------
------15-20------
------20-30------------1
------30-40------1
------40-50------
------50-60------
------60-70------
------70-80------
-------------------------------------------
Jonas------Yoder------Cambr------Conem------172------30/40------(Y2392)
------------male------female
-----------age-<5------1------2
------5-10------------1
------10-15------
------15-20------
------20-30------1------1
------30-40------
------40-50------
------50-60------
------60-70------
------70-80------
-------------------------------------------
David------Yoder------Cambr------Conem------177------60/70------(YR235)
------------male------female
-----------age-<5------
------5-10------
------10-15------
------15-20------1
------20-30------------1
------30-40------
------40-50------------1
------50-60------
------60-70------1
------70-80------
-------------------------------------------

Daniel------Yother------Centre------Boggs------452------50/60------(F)
------------male------female
-----------age-<5------------2
------5-10------
------10-15------
------15-20------2
------20-30------1------2
------30-40------
------40-50------
------50-60------1------1
------60-70------
------70-80------
-------------------------------------------
Henry------Yoder------Centre------Hlfmn------439------40/50------(YR2613)
------------male------female
-----------age-<5------1------1
------5-10------1------1
------10-15------1------3
------15-20------1
------20-30------
------30-40------
------40-50------1------1
------50-60------
------60-70------
------70-80------
-------------------------------------------
John------Yoler------Centre------Hlfmn------438------20/30------
------------male------female
-----------age-<5------1
------5-10------------2
------10-15------
------15-20------
------20-30------1
------30-40------------1
------40-50------
------50-60------
------60-70------
------70-80------
-------------------------------------------
Joll------Yoder------Centre------Hlfmn------440------30/40------(YR2571)
------------male------female
-----------age-<5------------1
------5-10------
------10-15------
------15-20------
------20-30------------1
------30-40------1
------40-50------
------50-60------
------60-70------
------70-80------
-------------------------------------------
Jonathan--Yoler------Centre------Hlfmn------438------20/30
------------male------female
-----------age-<5------1------2
------5-10------2
------10-15------------1
------15-20------
------20-30------1
------30-40------------1
------40-50------
------50-60------
------60-70------
------70-80------
-------------------------------------------
Joseph------Yoder------Centre------Hlfmn------440------50/60------(YR257)
------------male------female
-----------age-<5------
------5-10------------1
------10-15------1
------15-20------1------1
------20-30------1------1
------30-40------1
------40-50------
------50-60------1
------60-70------
------70-80------
-------------------------------------------
Joseph------Yoder------Centre------Hlfmn------440------50/60------(?YR2511)
------------male------female
-----------age-<5------
------5-10------
------10-15------1
------15-20------1------3
------20-30------1------4
------30-40------
------40-50------
------50-60------1------1
------60-70------
------70-80------
-------------------------------------------
John------Yoder------Chest------WNan------201------20/30
------------male------female
-----------age-<5------1------1
------5-10------
------10-15------
------15-20------
------20-30------1
------30-40------------1------
------40-50------
------50-60------
------60-70------
------70-80------
-------------------------------------------
Joseph------Yothers------Clrf------Covn------239------30/40------(F1)
------------male------female
-----------age-<5------2------1
------5-10------
------10-15------
------15-20------
------20-30------------1
------30-40------1
------40-50------
------50-60------
------60-70------
------70-80------
-------------------------------------------
Joseph------Yotter------Colum------Cata------161------30/40------(Y9)
------------male------female
-----------age-<5------------1
------5-10------
------10-15------
------15-20------
------20-30------------1
------30-40------1
------40-50------
------50-60------
------60-70------
------70-80------
-------------------------------------------
Samuel------Yotler------Colum------Cata------163------40/50------(Y5)
------------male------female
-----------age-<5------------3
------5-10------1------1
------10-15------------2
------15-20------------1
------20-30------
------30-40------------1
------40-50------1
------50-60------
------60-70------
------70-80------
-------------------------------------------
John------Yetter------Cumb------Smidd------034------50/60
------------male------female
-----------age-<5------
------5-10------1------1
------10-15------1
------15-20------1------1
------20-30------
------30-40------1
------40-50------1------1
------50-60------1
------60-70------
------70-80------
-------------------------------------------
Jacob------Yotter------Fay------Sltlk------298------20/30------(YB2141)
------------male------female
-----------age-<5------2
------5-10------
------10-15------
------15-20------
------20-30------1
------30-40------------1
------40-50------
------50-60------
------60-70------
------70-80------
-------------------------------------------
John------Yeoders------Green------Jeff------324------30/40
------------male------female
-----------age-<5------
------5-10------
------10-15------
------15-20------
------20-30------
------30-40------
------40-50------
------50-60------
------60-70------
------70-80------
-------------------------------------------
George------Yeaders------Green------Morg------439------40/50
------------male------female
-----------age-<5------------1
------5-10------
------10-15------------1
------15-20------1
------20-30------1------1
------30-40------
------40-50------1------1
------50-60------
------60-70------
------70-80------
-------------------------------------------
Jacob------Yeoders------Green------Morg------440------50/60------(K)
------------male------female
-----------age-<5------
------5-10------------1
------10-15------1
------15-20------
------20-30------2
------30-40------
------40-50------
------50-60------1------1
------60-70------
------70-80------
-------------------------------------------
Katherine-Yeater------Green------Wayne------382------30/40
------------male------female
-----------age-<5------
------5-10------------1
------10-15------
------15-20------
------20-30------
------30-40------------1
------40-50------
------50-60------
------60-70------
------70-80------
-------------------------------------------
Lydia------Yeater------Green------Wayne------384------30/40------(w/o-John)
------------male------female
-----------age-<5------2------1
------5-10------------3
------10-15------
------15-20------
------20-30------1
------30-40------------1
------40-50------
------50-60------
------60-70------
------70-80------
-------------------------------------------
William------Yeater------Green------Wayne------382------20/30------(s/o-Andrew)
------------male------female
-----------age-<5------1
------5-10------
------10-15------
------15-20------------1
------20-30------1
------30-40------
------40-50------
------50-60------
------60-70------
------70-80------
-------------------------------------------
Daniel------Yoder------Hunt------Hend------134------40/50------(YR1461)
------------male------female
-----------age-<5------------1
------5-10------2
------10-15------2------2
------15-20------
------20-30------
------30-40------
------40-50------1------1
------50-60------
------60-70------
------70-80------
-------------------------------------------
David------Yoder------Hunt------Hend------134------20/30
------------male------female
-----------age-<5------1------1
------5-10------2
------10-15------
------15-20------
------20-30------1------1
------30-40------
------40-50------
------50-60------
------60-70------
------70-80------
-------------------------------------------
Jacob------Yoder------Hunt------Hend------133------30/40
------------male------female
-----------age-<5------------
------5-10------1------1
------10-15------1
------15-20------
------20-30------------1
------30-40------1
------40-50------
------50-60------
------60-70------
------70-80------
-------------------------------------------
Daniel------Yoder------Lanc------Caern------182------40/50
------------male------female
-----------age-<5------1
------5-10------------3
------10-15------
------15-20------------1
------20-30------------1
------30-40------------1
------40-50------1
------50-60------
------60-70------
------70-80------
-------------------------------------------
William------Yoder------Lanc------Caern------181------20/30
------------male------female
-----------age-<5------2
------5-10------------1
------10-15------
------15-20------------1
------20-30------2
------30-40------
------40-50------
------50-60------
------60-70------
------70-80------
-------------------------------------------
Wm-B------Yetter------Lanc------Colum------309------20/30
------------male------female
-----------age-<5------------2
------5-10------1------1
------10-15------
------15-20------2
------20-30------2------1
------30-40------
------40-50------
------50-60------
------60-70------
------70-80------
-------------------------------------------
John------Yetter------Lanc------MtJoy------100------30/40
------------male------female
-----------age-<5------------2
------5-10------1------1
------10-15------2
------15-20------------1
------20-30------
------30-40------1------1
------40-50------
------50-60------
------60-70------
------70-80------
-------------------------------------------
Samuel------Yetter------Lanc------MtJoy------096------30/40
------------male------female
-----------age-<5------------2
------5-10------------1
------10-15------
------15-20------
------20-30------1
------30-40------1------1------
------40-50------
------50-60------
------60-70------
------70-80------
-------------------------------------------
Mary------Yoder------Lanc------Salis------251------50/60------(w/oYR143)
------------male------female
-----------age-<5------
------5-10------
------10-15------
------15-20------1------1
------20-30------------1
------30-40------
------40-50------
------50-60------------1
------60-70------
------70-80------
-------------------------------------------
Mary------Yoder------Lanc------Salis------256------50/60------(?YR1424)
------------male------female
-----------age-<5------
------5-10------1
------10-15------1
------15-20------
------20-30------1
------30-40------
------40-50------
------50-60------------1
------60-70------
------70-80------
-------------------------------------------
Nicholas---Yoder------Lanc------Salis------248------40/50------(YR1425)
------------male------female
-----------age-<5------------2
------5-10------1------1
------10-15------1------1
------15-20------------1
------20-30------1
------30-40------------1
------40-50------1
------50-60------
------60-70------------2
------70-80------
-------------------------------------------
Jacob------Yoder------Lanc------Stras------442------40/50
------------male------female
-----------age-<5------
------5-10------1
------10-15------1------1
------15-20------1
------20-30------
------30-40------------1
------40-50------1
------50-60------
------60-70------
------70-80------
-------------------------------------------
John-Jr------Yoder------Lanc------Stras------442------20/30
------------male------female
-----------age-<5------------2
------5-10------1------1
------10-15------1------1
------15-20------1
------20-30------1------1
------30-40------
------40-50------
------50-60------
------60-70------
------70-80------
-------------------------------------------
John-Sr------Yoder------Lanc------Stras------442------60/70
------------male------female
-----------age-<5------
------5-10------
------10-15------
------15-20------------1
------20-30------
------30-40------
------40-50------
------50-60------------1
------60-70------1
------70-80------
-------------------------------------------
Emnuel------Yetter------Lanc------Warw------369------30/40
------------male------female
-----------age-<5------1------2
------5-10------------1
------10-15------
------15-20------
------20-30------
------30-40------1------1
------40-50------
------50-60------
------60-70------
------70-80------
-------------------------------------------
Lewis------Yetter------Lanc------Warw------369------20/30
------------male------female
-----------age-<5------1------2
------5-10------
------10-15------1
------15-20------
------20-30------1------1
------30-40------
------40-50------
------50-60------------1
------60-70------
------70-80------
-------------------------------------------
Abraha------Yutter------Lehi------UpSauc------038------40/50------(YB135)
------------male------female
-----------age-<5------------1
------5-10------1
------10-15------
------15-20------1------1
------20-30------
------30-40------------1
------40-50------1------1
------50-60------
------60-70------
------70-80------
-------------------------------------------
Jacob------Yutter------Lehi------UpSauc------038------40/50------(YB113)
------------male------female
-----------age-<5------
------5-10------
------10-15------
------15-20------1------1
------20-30------1------1------
------30-40------
------40-50------
------50-60------1------1
------60-70------
------70-80------
-------------------------------------------
Jacob-Jr------Yutter------Lehi------UpSauc------038------30/40------(YB139)
------------male------female
-----------age-<5------
------5-10------------1
------10-15------1
------15-20------------1
------20-30------
------30-40------
------40-50------1------1
------50-60------
------60-70------
------70-80------
-------------------------------------------
John------Yutter------Lehi------UpSauc------038------50/60------(?YB117)
------------male------female
-----------age-<5------2
------5-10------1------1
------10-15------1------1
------15-20------
------20-30------
------30-40------1------1
------40-50------
------50-60------
------60-70------
------70-80------
-------------------------------------------
Henry------Yeider------Lycm------Wayne------223------50/60
------------male------female
-----------age-<5------
------5-10------
------10-15------
------15-20------------1
------20-30------
------30-40------
------40-50------
------50-60------1------1
------60-70------
------70-80------------1
-------------------------------------------
Gideon------Yoder------Miff------Armgh------445------30/40------(YR165)
------------male------female
-----------age-<5------3------2
------5-10------1------2
------10-15------------2
------15-20------------3
------20-30------
------30-40------1------1
------40-50------
------50-60------
------60-70------
------70-80------
-------------------------------------------
John------Yoder------Miff------Armgh------446------40/50
------------male------female
-----------age-<5------1------1
------5-10------------1
------10-15------1
------15-20------------1
------20-30------------1
------30-40------
------40-50------1
------50-60------
------60-70------
------70-80------
-------------------------------------------
Solomon--Yoder------Miff------Armgh------445------60/70
------------male------female
-----------age-<5------1------1
------5-10------
------10-15------
------15-20------
------20-30------1------1
------30-40------
------40-50------
------50-60------
------60-70------1
------70-80------
-------------------------------------------
Jacob------Yeater------Miff------Decatr------494------30/40
------------male------female
-----------age-<5------
------5-10------
------10-15------1
------15-20------1------1
------20-30------
------30-40------1
------40-50------
------50-60------
------60-70------
------70-80------
-------------------------------------------
Joab------Yeater------Miff------Decatr------495------50/60
------------male------female
-----------age-<5------
------5-10------
------10-15------
------15-20------1
------20-30------------1
------30-40------
------40-50------
------50-60------1------1
------60-70------
------70-80------
-------------------------------------------
John------Yeater------Miff------Decatr------493------20/30
------------male------female
-----------age-<5------1------1
------5-10------------1
------10-15------1------1
------15-20------
------20-30------1------1
------30-40------
------40-50------
------50-60------
------60-70------
------70-80------
-------------------------------------------
Ludwick------Yeater------Miff------Decatr------494------50/60
------------male------female
-----------age-<5------1------1
------5-10------1
------10-15------------1
------15-20------
------20-30------1------1
------30-40------
------40-50------1
------50-60------1
------60-70------
------70-80------
-------------------------------------------
Ludwick------Yeater------Miff------Decatr------495------20/30
------------male------female
-----------age-<5------2------1
------5-10------------1
------10-15------
------15-20------
------20-30------1------1
------30-40------
------40-50------
------50-60------
------60-70------
------70-80------
-------------------------------------------
Ludwick------Yeater------Miff------Decatr------493------40/50
------------male------female
-----------age-<5------
------5-10------1
------10-15------1------2
------15-20------1
------20-30------------1
------30-40------
------40-50------1------1
------50-60------
------60-70------
------70-80------
-------------------------------------------
Philip------Yeater------Miff------Union------464------40/50
------------male------female
-----------age-<5------
------5-10------1
------10-15------------1
------15-20------
------20-30------
------30-40------
------40-50------1------1
------50-60------
------60-70------
------70-80------
-------------------------------------------
Peter------Yoder------Miff------Grnwd------406------40/50
------------male------female
-----------age-<5------1------2
------5-10------------1
------10-15------1------2
------15-20------1
------20-30------
------30-40------
------40-50------1------1
------50-60------
------60-70------
------70-80------
-------------------------------------------
Benjmn------Yoder------Miff------Grnwd------407------30/40------
------------male------female
-----------age-<5------2------1
------5-10------------2
------10-15------1
------15-20------
------20-30------
------30-40------1------1
------40-50------
------50-60------
------60-70------
------70-80------
-------------------------------------------
Christian-Yoder------Miff------Union------459------50/60
------------male------female
-----------age-<5------
------5-10------
------10-15------------1
------15-20------2
------20-30------1------1
------30-40------
------40-50------
------50-60------1------1
------60-70------
------70-80------
-------------------------------------------
Christian--Yoder------Miff------Union------468------40/50
------------male------female
-----------age-<5------2------1
------5-10------2------1
------10-15------1------3
------15-20------2
------20-30------
------30-40------
------40-50------1------2
------50-60------
------60-70------
------70-80------
-------------------------------------------
Christian-Yoder------Miff------Union------461------20/30
------------male------female
-----------age-<5------
------5-10------
------10-15------
------15-20------
------20-30------1------1
------30-40------
------40-50------
------50-60------
------60-70------
------70-80------
-------------------------------------------
Christly------Yoder------Miff------Union------464------40/50
------------male------female
-----------age-<5------2------
------5-10------------1
------10-15------1------1
------15-20------2------2
------20-30------
------30-40------
------40-50------1------1
------50-60------
------60-70------
------70-80------
-------------------------------------------
Christly------Yoder------Miff------Union------468------30/40
------------male------female
-----------age-<5------1------1
------5-10------3
------10-15------
------15-20------
------20-30------1
------30-40------1------1
------40-50------
------50-60------
------60-70------
------70-80------
-------------------------------------------
Christly------Yoder------Miff------Union------468------60/70
------------male------female
-----------age-<5------
------5-10------
------10-15------
------15-20------
------20-30------
------30-40------
------40-50------
------50-60------
------60-70------1------1
------70-80------
-------------------------------------------
David------Yoder------Miff------Union------459------40/50------(YR267)
------------male------female
-----------age-<5------
------5-10------------2
------10-15------2------1
------15-20------1------1
------20-30------
------30-40------
------40-50------1------1
------50-60------
------60-70------
------70-80------
-------------------------------------------
David------Yoder------Miff------Union------462------40/50------(YR174)
------------male------female
-----------age-<5------1
------5-10------2
------10-15------1------1
------15-20------1------2
------20-30------
------30-40------
------40-50------1
------50-60------
------60-70------
------70-80------
-------------------------------------------
Isaac------Yoder------Miff------Union------459------20/30------(YR2683)
------------male------female
-----------age-<5------1
------5-10------
------10-15------
------15-20------1
------20-30------1------1
------30-40------
------40-50------
------50-60------
------60-70------
------70-80------
-------------------------------------------
John------Yoder------Miff------Union------458------30/40------(YR1284)
------------male------female
-----------age-<5------
------5-10------1
------10-15------
------15-20------
------20-30------
------30-40------1------1
------40-50------
------50-60------
------60-70------
------70-80------
-------------------------------------------
John------Yoder------Miff------Union------465------40/50
------------male------female
-----------age-<5------1
------5-10------1------1
------10-15------
------15-20------1------1
------20-30------
------30-40------------1
------40-50------1
------50-60------
------60-70------
------70-80------
-------------------------------------------
Joseph------Yoder------Miff------Union------460------30/40------(YR12a4)
------------male------female
-----------age-<5------------3
------5-10------
------10-15------
------15-20------------
------20-30------------1
------30-40------1
------40-50------
------50-60------------
------60-70------
------70-80------
-------------------------------------------
Michael------Yoder------Miff------Union------459------60/70------(YR164)
------------male------female
-----------age-<5------
------5-10------
------10-15------
------15-20------
------20-30------
------30-40------
------40-50------
------50-60------------1-------------------(YR167)
------60-70------1
------70-80------
-------------------------------------------
Moses------Yoder------Miff------Union------461------20/30------(YR2564)
------------male------female
-----------age-<5------
------5-10------
------10-15------1
------15-20------------1
------20-30------1
------30-40------
------40-50------
------50-60------------1------------------(w/oYR256)
------60-70------
------70-80------
-------------------------------------------
Nancy------Yoder------Miff------Union------467------30/40
------------male------female
-----------age-<5------3
------5-10------
------10-15------
------15-20------
------20-30------
------30-40------------1
------40-50------
------50-60------
------60-70------
------70-80------
-------------------------------------------
Peter------Yoder------Miff------Union------468------40/50------
------------male------female
-----------age-<5------
------5-10------
------10-15------1
------15-20------
------20-30------
------30-40------------2
------40-50------1
------50-60------
------60-70------
------70-80------
-------------------------------------------
Samuel------Yoder------Miff------Union------460------20/30
------------male------female
-----------age-<5------1------1
------5-10------1------1
------10-15------
------15-20------
------20-30------2------2
------30-40------
------40-50------
------50-60------
------60-70------
------70-80------
-------------------------------------------
Christian--Yoder------Miff------Wayne------421------30/40------(YR1274)
------------male------female
-----------age-<5------------1
------5-10------
------10-15------
------15-20------
------20-30------1
------30-40------1------1
------40-50------
------50-60------
------60-70------
------70-80------------1
-------------------------------------------
Daniel------Yoder------Miff------Wayne------421------30/40------(YR1285)
------------male------female
-----------age-<5------
------5-10------------1
------10-15------------1
------15-20------
------20-30------
------30-40------1------1
------40-50------
------50-60------
------60-70------
------70-80------
-------------------------------------------
John------Yoder------Miff------Wayne------417------40/50------(YR1273)
------------male------female
-----------age-<5------1------1
------5-10------2
------10-15------2------1
------15-20------------1
------20-30------
------30-40------------1
------40-50------1
------50-60------
------60-70------
------70-80------
-------------------------------------------
Solomon--Yoder------Miff------Wayne------421------30/40------(YR1286)
------------male------female
-----------age-<5------
------5-10------
------10-15------
------15-20------
------20-30------
------30-40------1------1
------40-50------
------50-60------
------60-70------
------70-80------
-------------------------------------------
Abraham-Yoter------Mont------Franc------198------40/50------(YB242)
------------male------female
-----------age-<5------1------2
------5-10------------1
------10-15------------1
------15-20------------1
------20-30------
------30-40------------1
------40-50------1
------50-60------
------60-70------
------70-80------
-------------------------------------------
John------Yoter------Mont------Franc------198------30/40------(YB245)
------------male------female
-----------age-<5------1------2
------5-10------2------1
------10-15------------1
------15-20------------1
------20-30------
------30-40------1------1
------40-50------------
------50-60------
------60-70------
------70-80------
-------------------------------------------
Lewis------Yetter------Mont------Plym------222------20/30
------------male------female
-----------age-<5------
------5-10------1
------10-15------
------15-20------
------20-30------2
------30-40------
------40-50------
------50-60------
------60-70------
------70-80------------1
-------------------------------------------
Abraham--Yoter------Mont------UpHan------184------60/70------(YB25)
------------male------female
-----------age-<5------
------5-10------
------10-15------
------15-20------------1
------20-30------2------2
------30-40------
------40-50------
------50-60------------1
------60-70------1
------70-80------
-------------------------------------------
Jacob------Yoter------Mont------UpHan------184------20/30------(YB256)
------------male------female
-----------age-<5------1
------5-10------
------10-15------------1
------15-20------
------20-30------1------1
------30-40------
------40-50------
------50-60------
------60-70------
------70-80------
-------------------------------------------
Henry------Yetter------N'ampt------Ham------182------30/40
------------male------female
-----------age-<5------
------5-10------1------1
------10-15------------1
------15-20------
------20-30------------1------
------30-40------1
------40-50------
------50-60------
------60-70------
------70-80------
-------------------------------------------
Joseph------Yetter------N'ampt------L.Naz------071------30/40
------------male------female
-----------age-<5------------1
------5-10------1------1
------10-15------
------15-20------
------20-30------------1
------30-40------1
------40-50------
------50-60------
------60-70------
------70-80------
-------------------------------------------
Benjmn------Yetter------N'umb------Chill------151------20/30
------------male------female
-----------age-<5------1------1
------5-10------
------10-15------
------15-20------
------20-30------1------1
------30-40------
------40-50------
------50-60------
------60-70------
------70-80------
-------------------------------------------
John------Yeter------Phila------4-ward------090------50/60
------------male------female
-----------age-<5------1------
------5-10------1
------10-15------1------1
------15-20------1------2
------20-30------2
------30-40------------1
------40-50------
------50-60------1
------60-70------
------70-80------
-------------------------------------------
Sarah------Yetter------Phila------6-ward------168------60/70
------------male------female
-----------age-<5------------2
------5-10------------1
------10-15------------1
------15-20------
------20-30------
------30-40------------1
------40-50------
------50-60------
------60-70------------1
------70-80------
-------------------------------------------
Peter------Yetter------Phila------7-ward------196------20/30
------------male------female
-----------age-<5------2------1
------5-10------
------10-15------
------15-20------
------20-30------1------1
------30-40------
------40-50------
------50-60------
------60-70------
------70-80------
-------------------------------------------
Jacob------Yeater------Phila------Phila------040------30/40
------------male------female
-----------age-<5------
------5-10------1
------10-15------------1
------15-20------
------20-30------
------30-40------1
------40-50------
------50-60------
------60-70------
------70-80------
-------------------------------------------
John------Yoller------Phila------Phila------064------70/80
------------male------female
-----------age-<5------------1
------5-10------1
------10-15------
------15-20------
------20-30------
------30-40------1------1
------40-50------
------50-60------
------60-70------
------70-80------1------1
-------------------------------------------
J.M.------Yeider------Phila------SWark------386------40/50
------------male------female
-----------age-<5------2
------5-10------
------10-15------
------15-20------------1
------20-30------
------30-40------
------40-50------1
------50-60------
------60-70------
------70-80------
-------------------------------------------
George------Yetter------Pike------____------029------20/30
------------male------female
-----------age-<5------1------2
------5-10------
------10-15------
------15-20------
------20-30------1------1
------30-40------
------40-50------
------50-60------
------60-70------
------70-80------
-------------------------------------------
Daniel------Yoder------Schyl------Manhm------056------30/40------(OY424)
------------male------female
-----------age-<5------
------5-10------1
------10-15------------2
------15-20------1
------20-30------
------30-40------1------1
------40-50------
------50-60------
------60-70------
------70-80------
-------------------------------------------
George------Yoder------Schyl------Manhm------056------30/40------(OY426)
------------male------female
-----------age-<5------1------1
------5-10------------1
------10-15------------1
------15-20------
------20-30------
------30-40------1
------40-50------------1
------50-60------
------60-70------
------70-80------
-------------------------------------------
Anthony--Yoder------Schyl------UpMoh------068------40/50------(OH1321)
------------male------female
-----------age-<5------2------1
------5-10------------2
------10-15------1------2
------15-20------------2
------20-30------
------30-40------------1
------40-50------1
------50-60------
------60-70------
------70-80------
-------------------------------------------
Elizabeth--Yoder------Schyl------UpMoh------069------30/40------(w/o-OH1328)
------------male------female
-----------age-<5------
------5-10------
------10-15------
------15-20------
------20-30------
------30-40------
------40-50------
------50-60------
------60-70------
------70-80------
-------------------------------------------
Jermiah------Yoder------Schyl------UpMoh------069------30/40------(OH1334)
------------male------female
-----------age-<5------2------1
------5-10------------2
------10-15------2
------15-20------
------20-30------
------30-40------1------1
------40-50------
------50-60------
------60-70------
------70-80------
-------------------------------------------
Peter------Yoder------Schyl------UpMoh------068------60/70------(OH133)
------------male------female
-----------age-<5------
------5-10------
------10-15------------1
------15-20------
------20-30------------1
------30-40------
------40-50------
------50-60------
------60-70------1------1
------70-80------
-------------------------------------------
Solomon--Yoder------Schyl------UpMoh------069------20/30------(OH1337)
------------male------female
-----------age-<5------2
------5-10------2
------10-15------1
------15-20------
------20-30------1------1
------30-40------
------40-50------
------50-60------
------60-70------
------70-80------
-------------------------------------------
Elijah------Yoder------Schyl------Wayne------075------20/30
------------male------female
-----------age-<5------1
------5-10------
------10-15------
------15-20------
------20-30------1------1
------30-40------
------40-50------
------50-60------
------60-70------
------70-80------
-------------------------------------------
Jacob------Yoder------Som------BroVl------059------80/90------(YR121)
------------male------female
-----------age-<5------
------5-10------
------10-15------1
------15-20------1------1------
------20-30------
------30-40------
------40-50------
------50-60------
------60-70------
------70-80------
------80-90------1
-------------------------------------------
Peter------Yoder------Som------BroVl------059------30/40
------------male------female
-----------age-<5------1------1
------5-10------------1
------10-15------
------15-20------
------20-30------------1
------30-40------1
------40-50------
------50-60------
------60-70------
------70-80------
-------------------------------------------
Jacob------Yoder------Som------Elklk------038------30/40
------------male------female
-----------age-<5------2------1
------5-10------1
------10-15------1
------15-20------1
------20-30------
------30-40------1------1
------40-50------
------50-60------
------60-70------
------70-80------
-------------------------------------------
Jacob------Yoder------Som------Elklk------038------30/40
------------male------female
-----------age-<5------2------1
------5-10------2
------10-15------
------15-20------
------20-30------------1
------30-40------1
------40-50------
------50-60------
------60-70------
------70-80------
-------------------------------------------
Joseph------Yoder------Som------Elklk------038------40/50
------------male------female
-----------age-<5------3------1
------5-10------------1
------10-15------
------15-20------1------1
------20-30------------1
------30-40------1
------40-50------1------1
------50-60------
------60-70------
------70-80------
-------------------------------------------
Stephen------Yoder------Som------Elklk------038------20/30
------------male------female
-----------age-<5------------1
------5-10------
------10-15------1
------15-20------1
------20-30------1------1
------30-40------
------40-50------
------50-60------
------60-70------
------70-80------
-------------------------------------------
Yost------Yoder------Som------Elklk------038------40/50
------------male------female
-----------age-<5------
------5-10------1
------10-15------2
------15-20------2------1
------20-30------1------1
------30-40------
------40-50------1
------50-60------------1
------60-70------
------70-80------
-------------------------------------------
David------Yoder------Som------Som------093------20/30
------------male------female
-----------age-<5------
------5-10------
------10-15------
------15-20------------1
------20-30------1
------30-40------
------40-50------
------50-60------
------60-70------
------70-80------
-------------------------------------------
Jepftha------Yoder------Som------Caven------105------40/50------(YR2345)
------------male------female
-----------age-<5------------
------5-10------3------1
------10-15------
------15-20------1------1
------20-30------1------1
------30-40------------
------40-50------1------1
------50-60------------
------60-70------
------70-80------
-------------------------------------------
Joel------Yoder------Som------Caven------105------20/30------
------------male------female
-----------age-<5------------1
------5-10------
------10-15------
------15-20------
------20-30------1------1
------30-40------
------40-50------
------50-60------
------60-70------
------70-80------
-------------------------------------------
Joseph------Yoder------Som------Caven------103------40/50------(YR2334)
------------male------female
-----------age-<5------
------5-10------2
------10-15------
------15-20------
------20-30------1
------30-40------------1
------40-50------1
------50-60------
------60-70------
------70-80------
------80-90------------1
-------------------------------------------
Joseph------Yoder------Som------Caven------104------30/40------(YR2345)
------------male------female
-----------age-<5------2
------5-10------
------10-15------2------1
------15-20------1
------20-30------
------30-40------1------1
------40-50------
------50-60------------1
------60-70------
------70-80------
-------------------------------------------
Michael------Yoder------Som------Caven------103------40/50
------------male------female
-----------age-<5------2------1
------5-10------1
------10-15------
------15-20------
------20-30------
------30-40------
------40-50------1------1
------50-60------
------60-70------
------70-80------
-------------------------------------------
Barbara------Yoder------Som------StCrk------069------50/60------(w/oYR234)
------------male------female
-----------age-<5------
------5-10------
------10-15------
------15-20------------1
------20-30------
------30-40------
------40-50------
------50-60------------1
------60-70------
------70-80------
-------------------------------------------
Christian--Yoder------Som------StCrk------070------40/50-------(of-Jacob)(YR2344)
------------male------female
-----------age-<5------1
------5-10------3
------10-15------2
------15-20------2
------20-30------
------30-40------
------40-50------1------1
------50-60------
------60-70------
------70-80------
-------------------------------------------
Christian--Yoder------Som------StCrk------069------30/40------(of-Chris)------(YR2337)
------------male------female
-----------age-<5------------2
------5-10------------2
------10-15------2
------15-20------------2
------20-30------
------30-40------1------1
------40-50------
------50-60------
------60-70------
------70-80------
-------------------------------------------
Christian---Yoder------Som------StCrk------069------60/70------(YR233)
------------male------female
-----------age-<5------
------5-10------
------10-15------
------15-20------
------20-30------
------30-40------
------40-50------
------50-60------
------60-70------1------1
------70-80------
-------------------------------------------
John------Yoder------Som------StCrk------069------50/60
------------male------female
-----------age-<5------
------5-10------
------10-15------1
------15-20------2------1
------20-30------
------30-40------
------40-50------
------50-60------1------1
------60-70------
------70-80------
-------------------------------------------
John-Jr------Yoder------Som------StCrk------070------40/50------------
------------male------female
-----------age-<5------1------1
------5-10------------2
------10-15------------2
------15-20------1
------20-30------
------30-40------------1
------40-50------1
------50-60------
------60-70------
------70-80------
-------------------------------------------
Jonathan--Yoder------Som------StCrk------070------60/70------(YR237)
------------male------female
-----------age-<5------
------5-10------1------2------
------10-15------------2
------15-20------------2
------20-30------
------30-40------
------40-50------------1
------50-60------
------60-70------1
------70-80------
-------------------------------------------
Jonathan--Yoder------Som------StCrk------069------20/30------(YR233d)
------------male------female
-----------age-<5------3
------5-10------
------10-15------
------15-20------1
------20-30------1------1
------30-40------
------40-50------
------50-60------
------60-70------
------70-80------
-------------------------------------------
Phillip------Yoder------Som------StCrk------069------20/30
------------male------female
-----------age-<5------2
------5-10------
------10-15------1
------15-20------------1
------20-30------1------1
------30-40------
------40-50------
------50-60------
------60-70------
------70-80------
-------------------------------------------
Samuel------Yoder------Som------StCrk------070------20/30
------------male------female
-----------age-<5------1------2
------5-10------
------10-15------------1
------15-20------
------20-30------1------1
------30-40------
------40-50------
------50-60------
------60-70------
------70-80------
-------------------------------------------
Yost------Yoder------Som------StCrk------069------30/40
------------male------female
-----------age-<5------1
------5-10------1
------10-15------------1
------15-20------1
------20-30------
------30-40------1------1
------40-50------
------50-60------
------60-70------
------70-80------
-------------------------------------------
Jacob------Yoder------Union------Buff------344------10/15
------------male------female
-----------age-<5------2------1
------5-10------2
------10-15------1------1
------15-20------
------20-30------------1
------30-40------
------40-50------
------50-60------
------60-70------
------70-80------
-------------------------------------------
John------Yoder------Union------Centre------357------60/70------(M23)
------------male------female
-----------age-<5------1
------5-10------------1
------10-15------
------15-20------
------20-30------1------1
------30-40------
------40-50------
------50-60------
------60-70------1------1
------70-80------
-------------------------------------------
Abraham--Yader------Union------Hertl------296------20/30
------------male------female
-----------age-<5------
------5-10------
------10-15------
------15-20------
------20-30------1------
------30-40------
------40-50------
------50-60------
------60-70------
------70-80------
-------------------------------------------
Henry------Yader------Union------Hertl------296------50/60
------------male------female
-----------age-<5------------1
------5-10------------1
------10-15------------1
------15-20------1------2
------20-30------------1
------30-40------
------40-50------
------50-60------1------1
------60-70------
------70-80------
-------------------------------------------
Joshua------Yoder------Union------WhtDr------262------20/30------(OH1341)
------------male------female
-----------age-<5------
------5-10------
------10-15------
------15-20------
------20-30------1
------30-40------
------40-50------
------50-60------
------60-70------
------70-80------
-------------------------------------------
Samuel------Yoder------Union------WhtDr------262------40/50
------------male------female
-----------age-<5------------2
------5-10------2
------10-15------------2
------15-20------1
------20-30------
------30-40------
------40-50------1------1
------50-60------
------60-70------
------70-80------
-------------------------------------------
Samuel-Jr--Yoder------Union------WhtDr------262------20/30
------------male------female
-----------age-<5------------
------5-10------------1
------10-15------------2
------15-20------1
------20-30------2
------30-40------
------40-50------------1
------50-60------
------60-70------
------70-80------
-------------------------------------------
George------Yeoters------Vena------Chry------034------30/40
------------male------female
-----------age-<5------1
------5-10------1------1
------10-15------1
------15-20------
------20-30------
------30-40------1------1
------40-50------
------50-60------
------60-70------
------70-80------
-------------------------------------------
Daniel------Yeller------West------Alle------220------30/40
------------male------female
-----------age-<5------2
------5-10------------1
------10-15------
------15-20------
------20-30------------1
------30-40------1
------40-50------
------50-60------
------60-70------
------70-80------
-------------------------------------------
Susanna------Yeller------West------Alle------220------70/80
------------male------female
-----------age-<5------2
------5-10------
------10-15------
------15-20------
------20-30------
------30-40------1
------40-50------------1
------50-60------
------60-70------
------70-80------------1
-------------------------------------------
Henry------Yoder------West------MtPls------269------50/60------(YB214)
------------male------female
-----------age-<5------1
------5-10------2------1
------10-15------------1
------15-20------1------2
------20-30------1------1
------30-40------
------40-50------
------50-60------1------1
------60-70------
------70-80------



Back to INDEX Back to CONTENTS

Yoder Newsletter - © Christopher K. Yoder, 1992, 1994