Search billions of records on Ancestry.com

Back to INDEX Back to CONTENTS

Yoder Census Records

Compiled by the Yoder Newsletter

CENSUS RECORDS FOR YODER FAMILIES IN PENNSYLVANIA-1840


These records were originally assembled in 1991 by Dorothy Yoder Coffman, 30 Grouse Road, Malvern, Pa, 19355-2208. They have been retyped from her hardcopy and are presented with her permission by the Yoder Newsletter. The Yoder Newsletter has also added the identification number for those heads of household whose identity is know. These codes relate to the family groups which have been archived elsewhere.--
Chris Yoder



"NOTES TO THE USER: All possible spellings of this name were included to allow for human error in the hearing, spelling or transcribing of the name."The information contained here was taken from the printed texts, indexes and microfilm found at the branch of the national Archives in Philadelphia, Pennsylvania.
The term 'printed index(s)' refers to those volumes generated by commercial or private groups, and these can be found at the National Archive branches and in many genealogical libraries. These printed indexes contain mistakes and omissions, and the
sorted indexes generated for this volume reflects these errors - just as they were found. The information in the census records is shown exactly as it appeared on the microfilm.
"Every attempt was made to be as accurate as possible. The 1840 PA microfilm was of poor quality and difficult to read. The index for 1840 was a trial because it contains typos and differnt spellings of the name Yoder which were quite legible in the text.
Several Yoders in the text were discovered which did not appear in the Index (and are included). Corrections have been made to this record. The page numbers in some PA counties don't agree with what was given in the Index. In short, this was not an easy
census to work with ."The indexes for these census records have been sorted two ways -- by county and by given name to allow the researcher to locate a given person or locality quickly. --
Dorothy Yoder Coffman--1985.


YODERS IN 1840 PA CENSUS-NAME SEQUENCE
------------TOTAL-218
first------last------county------twp------page------age

Aaron------Yetter------Monr------MiddS------348------20/30
Abraha------Yoder------Berks------Pike------483------50/60
Abraha------Yothers------Bucks------Sole------103------40/50
Abraha------Yedder------Bucks------Sprn------259------70/80
Abraha------Yetter------Monr------Coolb------336------50/60
Abraha------Yoter------Mont------Fran------069------50/60
Abraha------Yoder------Mont------UpHan------123------15/20
Abraha------Yodder------N'umb------Jack------225------30/40
Adam------Yoder------Som------Elklk------048------20/30
Barbara------Yoner------Union------WhiDr------325------30/40
Benjmn------Yader------Berks------Rock------284------20/30
Benjmn------Yoter------Camb------Cone------016------20/30
Benjmn------Yoder------Juni------Del------215------40/50
Benjmn------Yoder------Miff------Union------058------20/30
Berry-(f)------Yoder------Lehi------UpSauc------188------60/70
Cathern------Yeater------Green------Wayne------013------40/50
Cathern------Yoder------Miff------Brwn------044------60/70
Cathern------Yetter------Union------WhtDr------321------50/60
Christia------Yoder------Juni------Turb------247------30/40
Christia------Yoder------Miff------Brwn------045------50/60
Christia------Yoder------Miff------Oliv------012------40/50
Christia------Yoder------Miff------Oliv------018------50/60
Christia------Yoder------Miff------Oliv------020------40/50
Christia------Yoder------Miff------Union------056------30/40
Christia------Yoder------Som------StoCrk------053------50/60
Chrst-Jr------Yoder------Som------StoCrk------053------40/50
Daniel------Yoter------Camb------Cone------014------40/50
Daniel------Yeathrs------Centre------Boggs------100------60/70
Daniel------Yetter------Colum------Cata------171------50/60
Daniel------Yoder------Hunt------Hend------211------50/60
Daniel------Yoder------Lanc------Stras------302------40/50
Daniel------Yoder------Miff------Oliv------041------40/50
Daniel------Yoder------Schyl------Orwig------035------50/60
Daniel------Yoder------Som------Elklk------048------40/50
Daniel------Yoter------West------Alle------156------40/50
David------Yoder------Berks------Oley------300------30/40
David------Yoder------Berks------Union------398------20/30
David------Yothers------Bucks------Nbrit------015------70/80
David------Yothers------Bucks------Sole------104------20/30
David------Yoter------Camb------Cone------014------70/80
David------Yoder------Hunt------Hend------211------30/40
David------Yeater------Hunt------Wdbrr------149------30/40
David------Yoder------Juni------Miff------199------30/40
David------Yodder------Lehi------S.--hites------270------30/40
David------Yoder------Miff------Decatr------062------20/30
David------Yoder------Miff------Oliv------021------20/30
David------Yetter------Monr------LSmth------332------20/30
David------Yoder------Som------StoCrk------053------30/40
David------Yoder------Som------StoCrk------054------20/30
Eli------Yoder------Hunt------Blair------161------20/30
Elias------Yoder------Schyl------PnGro------072------30/40
Elizabth------Yoder------Som------StoCrk------054------40/50
Francis------Yoder------Miff------Oliv------018------50/60
Fredrck------Yoder------Berks------UpBrn------462------20/30
Gabriel------Yoder------Miff------Union------061------20/30
George------Yoder------Berks------Pike------484------40/50
George------Yoder------Fayt------Bulls------383------50/60
George------Yader------Green------Mono------120------70/80
George------Yeoders------Green------Morg------067------50/60
George------Yoder------Miff------Decatr------062------30/40
George------Yetter------N'ampt------L.Mt------062------20/30
George------Yoder------Vengo------SgrCrk------078------40/50
Gideon------Yoder------Lehi------UpMah------199------70/80
Gideon------Yoder------Miff------Brwn------044------------
Grge-Jr------Yeoders------Green------Morg------067------20/30
Henry------Yoder------Bucks------WRock------313------30/40
Henry------Yetter------Chest------Ebrad------078------20/30
Henry------Yider------Clint------Wayne------319------60/70
Henry------Yoter------Fayt------HClay------442------20/30
Henry------Youger------Fayt------Union------339------50/60
Henry------Yetter------Monr------Pocon------369------30/40
Henry------Yoter------West------MtPl------402------60/70
Hezikih------Yotter------Cumb------SMidd------143------20/30
Isaac------Yader------Berks------Oley------300------30/40
Isaac------Yatter------Butl------Butl------029------50/60
Isaac------Yetter------Colum------Cata------172------30/40
Isaac------Yoder------Miff------Union------058------30/40
Isaac------Yoder------N'umb------UpMah------184------20/30
Isaac------Yoder------Som------Elklk------049------20/30
J.------Yeaters------Phila------S.War------108------20/30
Jacob------Yoder------Berks------Heidl------445------70/80
Jacob------Yader------Berks------Rock------284------20/30
Jacob------Yoder------Berks------UpBrn------470------50/60
Jacob------Yothers------Bucks------Doyle------009------50/60
Jacob------Yoter------Camb------Rich------048------20/30
Jacob------Yetter------Colum------Cata------171------50/60
Jacob------Yothers------Fayt------SltLk------393------30/40
Jacob------Yoder------Juni------Miff------201------30/40
Jacob------Yoder------Juni------Turb------251------20/30
Jacob------Yeater------Juni------Walk------205------20/30
Jacob------Yoder------Lanc-----------------319------30/40
Jacob------Yoder------Lehi------UpSau------187------50/60
Jacob------Yoder------Miff------Decatr------065------60/70
Jacob------Yetter------Monr------MiddS------348------50/60
Jacob------Yoder------Mont------Doug------113------30/40
Jacob------Yoner------Som------Alle------014------50/60
Jacob------Yoder------Som------Elklk------049------40/50
Jacob------Yotter------Union------Buff------311------60/70
Jacob------Yoders------Wash------W.Beth------267------30/40
Jacob-Jr------Yoder------Miff------Decatr------065------30/40
Jacob-Sr------Yoder------Lehi------UpSau------187------50/60
Jared------Yetter------Colum------Cata------170------30/40
Jeptha------Yoder------Som------Cone------019------50/60
Joel------Yoder------Juni------Walk------203------40/50
John------Yoder------Berks------Oley------300------50/60
John------Yoder------Berks------Oley------301------20/30
John------Yader------Berks------Rich------252------50/60
John------Yoder------Berks------UpBrn------470------50/60
John------Yeathrs------Centre------Boggs------100------30/40
John------Yoder------Chest------W.Nan------039------30/40
John------Youger------Clear------Gird------310------50/60
John------Yetter------Colum------Cata------170------30/40
John------Yetter------Cumb------S'amp------068------50/60
John------Yetter------Daup------Derry------262------40/50
John------Youger------Fayt------Germ------311------20/30
John------Yothers------Fayt------SltLk------399------30/40
John------Youger------Fayt------Union------339------30/40
John------Yeater------Hunt------Wdbrr------150------40/50
John------Yoder------Juni------Miff------200------30/40
John------Yoder------Juni------Turb------252------30/40
John------Yoder------Lehi------Han------174------40/50
John------Yoder------Lehi------UpSau------188------30/40
John------Yorder------Lyco------Jack------152------20/30
John------Yoder------Miff------Brwn------046------20/30
John------Yoder------Miff------Decatr------062------40/50
John------Yoder------Miff------Oliv------018------50/60
John------Yoder------Miff------Union------056------30/40
John------Yoder------Miff------Union------061------40/50
John------Yetter------Monr------LSmth------332------40/50
John------Yetter------Monr------MiddS------347------20/30
John------Yoder------Mont------Fran------068------40/50
John------Yoder------Mont------UpHan------123------20/30
John------Yowler------Som------Elklk------049------30/40
John------Yoder------Som------StoCrk------053------60/70
John-Jr------Yeager------Colum------RrCrk------182------20/30------(sic)
John-Jr------Yoder------Juni------Turb------246------30/40
John-Sr------Yeather------Colum------RrCrk------182------50/60------next-door
John-Sr------Yoder------Juni------Turb------246------60/70
Jonas------Yoter------Camb------Cone------013------40/50
Jonatha------Yoter------Camb------Rich------049------30/40
Jonatha------Yoder------Juni------Tusc------258------40/50
Jonatha------Yoder------Miff------Decatr------065------30/40
Jonatha------Yoder------Miff------Union------059------20/30
Jonatha------Yoder------Som------Shade------104------70/80
Joseph------Yetter------Colum------Cata------173------40/50
Joseph------Yeider------Green------Jeff------124------40/50
Joseph------Yoder------Juni------Turb------247------60/70
Joseph------Yoder------Juni------Tusc------258------40/50
Joseph------Yoder------Lehi----------------187------30/40
Joseph------Yoder------Miff------Decatr------065------30/40
Joseph------Yoder------Miff------Oliv------012------30/40
Joseph------Yoder------Miff------Union------059------20/30
Joseph------Yetter------N'ampt------UpMt------091------50/60
Joseph------Yoder------Som------Cone------022------20/30
Joseph------Yoder------Som------Cone------022------50/60
Joseph------Yoder------Som------Elklk------049------50/60
Josph-Jr------Yoder------Som------Cone------019------50/60
Lena------Yoder------Som------StoCrk------053------20/30
Lever------Yoder------Miff------Union------061------30/40
Lewis------Yetter------Colum------Cata------170------40/50
Lewis------Yetter------Mont------Plym------256------30/40
Lindsey------Yeoders------Green------Morg------067------20/30
Lowdrth------Yoder------Miff------Decatr------065------30/40
Mahlon------Yoders------Wash------W.Beth------260------20/30
Martin------Yoder------Berks------Oley------301------20/30
Martin------Yonner------Camb------Wht------070------30/40
Martin------Yeoder------Mont------Hatf------077----------
Mary------Yoder------Chest------W.Caln------003------50/60
Mary------Yetter------Lanc------Rapho------064------20/30
Mathew------Yoder------Juni------Tusc------256------20/30
Michael------Yoter------Camb------Rich------048------50/60
Michael------Yoder------Juni------Miff------199------20/30
Michael------Yoder------Miff------Union------060------60/70
Moses------Yoder------Miff------Union------056------30/40
Moses------Yoder------Som------Elklk------048------20/30
Moses------Yetter------Union------WhiDr------321------30/40
Nancy------Yoder------Miff------Union------058------40/50
Nathan------Yoder------Berks------Pike------483------20/30
Nichols------Yoder------Miff------Union------060------30/40
Noah------Yoder------Som------Cone------020------20/30------(of-Jep)
Peter------Yoder------Clint------Lamar------351------20/30
Peter------Yoder------Juni------Del------215------50/60
Peter------Yoder------Lehi------UpSau------188------30/40
Peter------Yetter------Phila------Kens------136------40/50
Philip------Yoder------Som------StoCrk------053------30/40
Reuben------Yoder------Juni------Turb------246------30/40
Rosean------Yoder------Som------StoCrk------053------30/40
Samuel------Yoder------Bucks------W.Rock------313------40/50
Samuel------Yetter------Colum------Cata------173------40/50
Samuel------Yetter------Lanc------E.Don------115------40/50
Samuel------Yoder------Miff------Oliv------019------20/30
Samuel-------Yoder------Miff------Oliv------038------30/40--
Samuel------Yoder------Miff------Union------059------30/40
Samuel------Yoder------Som------StoCrk------058------30/40
Sarah------Yoder------Miff------Brwn------044----------
Sarah------Yetter------Phila------N.Lib------154------80/90
Simon------Yoder------Hunt------Hend------210------20/30
Simon------Yorder------Lyco------Wms------115------20/30
Solomo------Yoder------Berks------Oley------300------20/30
Solomo------Yoder------Schyl------UpMah------094------40/50
Solomo------Yoder------Som------BroVl------036------30/40
Solomo------Yetter------Union------Buff------302------40/50
Stephen------Yoder------Som------Cone------019------20/30
T.J.------Yoner------Lyco------Jers------083------30/40
Tobias------Yoder------Som------Cone------019------20/30
Tobias------Yoder------Som------Cone------019------20/30------(y.c.)
Tobias------Yoder------Som------Cone------020------30/40------(of-Jep)
Tobias------Yoder------Som------Cone------022------20/30
Widow------Yoder------Schyl------UpMah------094------40/50
Widow------Yoder------Schyl------UpMah------094------40/50
William------Youdar------Alle------Jeff------136------30/40
William------Yoder------Berks------Oley------300------50/60
William------Yetter------Bucks------S'amptn------163------40/50
William------Yoder------Colum------Cata------169------20/30
Yost------Yoder------Lanc------Caern------470------30/40
Yost------Yoder------Som------Elklk------049------50/60
-------------------------------------------

YODERS-IN-1840-PA-CENSUS-COUNTY-SEQUENCE
------------TOTAL-218
first------last------county------twp------page------age

William------Youdar------Alle------Jeff------136------30/40
Jacob------Yoder------Berks------Heidl------445------70/80
David------Yoder------Berks------Oley------300------30/40
Isaac------Yader------Berks------Oley------300------30/40
John------Yoder------Berks------Oley------300------50/60
Solomo------Yoder------Berks------Oley------300------20/30
William------Yoder------Berks------Oley------300------50/60
John------Yoder------Berks------Oley------301------20/30
Martin------Yoder------Berks------Oley------301------20/30
Abraha------Yoder------Berks------Pike------483------50/60
Nathan------Yoder------Berks------Pike------483------20/30
George------Yoder------Berks------Pike------484------40/50
John------Yader------Berks------Rich------252------50/60
Benjmn------Yader------Berks------Rock------284------20/30
Jacob------Yader------Berks------Rock------284------20/30
David------Yoder------Berks------Union------398------20/30
Fredrck------Yoder------Berks------UpBrn------462------20/30
John------Yoder------Berks------UpBrn------470------50/60
Jacob------Yoder------Berks------UpBrn------470------50/60
Jacob------Yothers------Bucks------Doyle------009------50/60
David------Yothers------Bucks------Nbrit------015------70/80
William------Yetter------Bucks------S'amptn------163------40/50
Abraha------Yothers------Bucks------Sole------103------40/50
David------Yothers------Bucks------Sole------104------20/30
Abraha------Yedder------Bucks------Sprn------259------70/80
Samuel------Yoder------Bucks------W.Rock------313------40/50
Henry------Yoder------Bucks------WRock------313------30/40
Isaac------Yatter------Butl------Butl------029------50/60
Jonas------Yoter------Camb------Cone------013------40/50
Daniel------Yoter------Camb------Cone------014------40/50
David------Yoter------Camb------Cone------014------70/80
Benjmn------Yoter------Camb------Cone------016------20/30
Jacob------Yoter------Camb------Rich------048------20/30
Michael------Yoter------Camb------Rich------048------50/60
Jonatha------Yoter------Camb------Rich------049------30/40
Martin------Yonner------Camb------Wht------070------30/40
Daniel------Yeathrs------Centre------Boggs------100------60/70
John------Yeathrs------Centre------Boggs------100------30/40
Henry------Yetter------Chest------Ebrad------078------20/30
Mary------Yoder------Chest------W.Caln------003------50/60
John------Yoder------Chest------W.Nan------039------30/40
John------Youger------Clear------Gird------310------50/60
Peter------Yoder------Clint------Lamar------351------20/30
Henry------Yider------Clint------Wayne------319------60/70
William------Yoder------Colum------Cata------169------20/30
Jared------Yetter------Colum------Cata------170------30/40
John------Yetter------Colum------Cata------170------30/40
Lewis------Yetter------Colum------Cata------170------40/50
Daniel------Yetter------Colum------Cata------171------50/60
Jacob------Yetter------Colum------Cata------171------50/60
Isaac------Yetter------Colum------Cata------172------30/40
Joseph------Yetter------Colum------Cata------173------40/50
Samuel------Yetter------Colum------Cata------173------40/50
John-Jr------Yeager------Colum------RrCrk------182------20/30------(sic)
John-Sr------Yeather------Colum------RrCrk------182------50/60------next-door
John------Yetter------Cumb------S'amp------068------50/60
Hezikih------Yotter------Cumb------SMidd------143------20/30
John------Yetter------Daup------Derry------262------40/50
George------Yoder------Fayt------Bulls------383------50/60
John------Youger------Fayt------Germ------311------20/30
Henry------Yoter------Fayt------HClay------442------20/30
Jacob------Yothers------Fayt------SltLk------393------30/40
John------Yothers------Fayt------SltLk------399------30/40
Henry------Youger------Fayt------Union------339------50/60
John------Youger------Fayt------Union------339------30/40
Joseph------Yeider------Green------Jeff------124------40/50
George------Yader------Green------Mono------120------70/80
George------Yeoders------Green------Morg------067------50/60
Lindsey------Yeoders------Green------Morg------067------20/30
Grge-Jr------Yeoders------Green------Morg------067------20/30
Cathern------Yeater------Green------Wayne------013------40/50
Eli------Yoder------Hunt------Blair------161------20/30
Simon------Yoder------Hunt------Hend------210------20/30
Daniel------Yoder------Hunt------Hend------211------50/60
David------Yoder------Hunt------Hend------211------30/40
David------Yeater------Hunt------Wdbrr------149------30/40
John------Yeater------Hunt------Wdbrr------150------40/50
Benjmn------Yoder------Juni------Del------215------40/50
Peter------Yoder------Juni------Del------215------50/60
David------Yoder------Juni------Miff------199------30/40
Michael------Yoder------Juni------Miff------199------20/30
John------Yoder------Juni------Miff------200------30/40
Jacob------Yoder------Juni------Miff------201------30/40
John-Jr------Yoder------Juni------Turb------246------30/40
John-Sr------Yoder------Juni------Turb------246------60/70
Reuben------Yoder------Juni------Turb------246------30/40
Christia------Yoder------Juni------Turb------247------30/40
Joseph------Yoder------Juni------Turb------247------60/70
Jacob------Yoder------Juni------Turb------251------20/30
John------Yoder------Juni------Turb------252------30/40
Mathew------Yoder------Juni------Tusc------256------20/30
Jonatha------Yoder------Juni------Tusc------258------40/50
Joseph------Yoder------Juni------Tusc------258------40/50
Joel------Yoder------Juni------Walk------203------40/50
Jacob------Yeater------Juni------Walk------205------20/30
Jacob------Yoder------Lanc-----------------319------30/40
Yost------Yoder------Lanc------Caern------470------30/40
Samuel------Yetter------Lanc------E.Don------115------40/50
Mary------Yetter------Lanc------Rapho------064------20/30
Daniel------Yoder------Lanc------Stras------302------40/50
Joseph------Yoder------Lehi----------------187------30/40
John------Yoder------Lehi------Han------174------40/50
David------Yodder------Lehi------S.--hites------270------30/40
Gideon------Yoder------Lehi------UpMah------199------70/80
Jacob------Yoder------Lehi------UpSau------187------50/60
Jacob-Sr------Yoder------Lehi------UpSau------187------50/60
John------Yoder------Lehi------UpSau------188------30/40
Peter------Yoder------Lehi------UpSau------188------30/40
Berry-(f)------Yoder------Lehi------UpSauc------188------60/70
John------Yorder------Lyco------Jack------152------20/30
T.J.------Yoner------Lyco------Jers------083------30/40
Simon------Yorder------Lyco------Wms------115------20/30
Cathern------Yoder------Miff------Brwn------044------60/70
Gideon------Yoder------Miff------Brwn------044------------
Sarah------Yoder------Miff------Brwn------044----------
Christia------Yoder------Miff------Brwn------045------50/60
John------Yoder------Miff------Brwn------046------20/30
David------Yoder------Miff------Decatr------062------20/30
George------Yoder------Miff------Decatr------062------30/40
John------Yoder------Miff------Decatr------062------40/50
Lowdrth------Yoder------Miff------Decatr------065------30/40
Jacob------Yoder------Miff------Decatr------065------60/70
Jacob-Jr------Yoder------Miff------Decatr------065------30/40
Jonatha------Yoder------Miff------Decatr------065------30/40
Joseph------Yoder------Miff------Decatr------065------30/40
Christia------Yoder------Miff------Oliv------012------40/50
Joseph------Yoder------Miff------Oliv------012------30/40
Christia------Yoder------Miff------Oliv------018------50/60
Francis------Yoder------Miff------Oliv------018------50/60
John------Yoder------Miff------Oliv------018------50/60
Samuel------Yoder------Miff------Oliv------019------20/30
Christia------Yoder------Miff------Oliv------020------40/50
David------Yoder------Miff------Oliv------021------20/30
Samuel-------Yoder------Miff------Oliv------038------30/40--
Daniel------Yoder------Miff------Oliv------041------40/50
Christia------Yoder------Miff------Union------056------30/40
John------Yoder------Miff------Union------056------30/40
Moses------Yoder------Miff------Union------056------30/40
Benjmn------Yoder------Miff------Union------058------20/30
Isaac------Yoder------Miff------Union------058------30/40
Nancy------Yoder------Miff------Union------058------40/50
Jonatha------Yoder------Miff------Union------059------20/30
Joseph------Yoder------Miff------Union------059------20/30
Samuel------Yoder------Miff------Union------059------30/40
Michael------Yoder------Miff------Union------060------60/70
Nichols------Yoder------Miff------Union------060------30/40
Gabriel------Yoder------Miff------Union------061------20/30
John------Yoder------Miff------Union------061------40/50
Lever------Yoder------Miff------Union------061------30/40
Abraha------Yetter------Monr------Coolb------336------50/60
David------Yetter------Monr------LSmth------332------20/30
John------Yetter------Monr------LSmth------332------40/50
John------Yetter------Monr------MiddS------347------20/30
Jacob------Yetter------Monr------MiddS------348------50/60
Aaron------Yetter------Monr------MiddS------348------20/30
Henry------Yetter------Monr------Pocon------369------30/40
Jacob------Yoder------Mont------Doug------113------30/40
John------Yoder------Mont------Fran------068------40/50
Abraha------Yoter------Mont------Fran------069------50/60
Martin------Yeoder------Mont------Hatf------077----------
Lewis------Yetter------Mont------Plym------256------30/40
Abraha------Yoder------Mont------UpHan------123------15/20
John------Yoder------Mont------UpHan------123------20/30
George------Yetter------N'ampt------L.Mt------062------20/30
Joseph------Yetter------N'ampt------UpMt------091------50/60
Abraha------Yodder------N'umb------Jack------225------30/40
Isaac------Yoder------N'umb------UpMah------184------20/30
Peter------Yetter------Phila------Kens------136------40/50
Sarah------Yetter------Phila------N.Lib------154------80/90
J.------Yeaters------Phila------S.War------108------20/30
Daniel------Yoder------Schyl------Orwig------035------50/60
Elias------Yoder------Schyl------PnGro------072------30/40
Solomo------Yoder------Schyl------UpMah------094------40/50
Widow------Yoder------Schyl------UpMah------094------40/50
Widow------Yoder------Schyl------UpMah------094------40/50
Jacob------Yoner------Som------Alle------014------50/60
Solomo------Yoder------Som------BroVl------036------30/40
Josph-Jr------Yoder------Som------Cone------019------50/60
Jeptha------Yoder------Som------Cone------019------50/60
Stephen------Yoder------Som------Cone------019------20/30
Tobias------Yoder------Som------Cone------019------20/30
Tobias------Yoder------Som------Cone------019------20/30------(y.c.)
Noah------Yoder------Som------Cone------020------20/30------(of-Jep)
Tobias------Yoder------Som------Cone------020------30/40------(of-Jep)
Joseph------Yoder------Som------Cone------022------20/30
Joseph------Yoder------Som------Cone------022------50/60
Tobias------Yoder------Som------Cone------022------20/30
Adam------Yoder------Som------Elklk------048------20/30
Daniel------Yoder------Som------Elklk------048------40/50
Moses------Yoder------Som------Elklk------048------20/30
John------Yowler------Som------Elklk------049------30/40
Isaac------Yoder------Som------Elklk------049------20/30
Jacob------Yoder------Som------Elklk------049------40/50
Joseph------Yoder------Som------Elklk------049------50/60
Yost------Yoder------Som------Elklk------049------50/60
Jonatha------Yoder------Som------Shade------104------70/80
Christia------Yoder------Som------StoCrk------053------50/60
David------Yoder------Som------StoCrk------053------30/40
John------Yoder------Som------StoCrk------053------60/70
Lena------Yoder------Som------StoCrk------053------20/30
Philip------Yoder------Som------StoCrk------053------30/40
Rosean------Yoder------Som------StoCrk------053------30/40
Chrst-Jr------Yoder------Som------StoCrk------053------40/50
David------Yoder------Som------StoCrk------054------20/30
Elizabth------Yoder------Som------StoCrk------054------40/50
Samuel------Yoder------Som------StoCrk------058------30/40
Solomo------Yetter------Union------Buff------302------40/50
Jacob------Yotter------Union------Buff------311------60/70
Moses------Yetter------Union------WhiDr------321------30/40
Barbara------Yoner------Union------WhiDr------325------30/40
Cathern------Yetter------Union------WhtDr------321------50/60
George------Yoder------Vengo------SgrCrk------078------40/50
Mahlon------Yoders------Wash------W.Beth------260------20/30
Jacob------Yoders------Wash------W.Beth------267------30/40
Daniel------Yoter------West------Alle------156------40/50
Henry------Yoter------West------MtPl------402------60/70
****************************************

William------Youdar------Alle------Jeff------136------30/40
------------male------female
-----------age-<5------------
------5-10------
------10-15------
------15-20------
------20-30------
------30-40------2------1
------40-50------
------50-60------
------60-70------
------70-80------
-------------------------------------------
Jacob------Yoder------Berks------Heidl------445------70/80------(AL)
------------male------female
-----------age-<5------------1------
------5-10------1------1
------10-15------------1
------15-20------1
------20-30------3
------30-40------
------40-50------1------2
------50-60------
------60-70------
------70-80------1
-------------------------------------------
David------Yoder------Berks------Oley------300------30/40------(OH1119)
------------male------female
-----------age-<5------------------2
------5-10------1------1
------10-15------1------1
------15-20------
------20-30------1------2
------30-40------3
------40-50------
------50-60------
------60-70------
------70-80------
-------------------------------------------
Isaac------Yader------Berks------Oley------300------30/40------(OH1452)
------------male------female
-----------age-<5------2------
------5-10------2------1
------10-15------1------3
------15-20------2
------20-30------
------30-40------1------1
------40-50------------1
------50-60------
------60-70------
------70-80------
-------------------------------------------
John------Yoder------Berks------Oley------300------50/60
------------male------female
-----------age-<5------------1
------5-10------------1
------10-15------1------1
------15-20------1------1
------20-30------------1
------30-40------
------40-50------1------1
------50-60------1
------60-70------
------70-80------
-------------------------------------------
Solomon--Yoder------Berks------Oley------300------20/30------(OH11132)
------------male------female
-----------age-<5------------2
------5-10------
------10-15------
------15-20------1------1
------20-30------2------2
------30-40------
------40-50------
------50-60------
------60-70------
------70-80------
-------------------------------------------
William------Yoder------Berks------Oley------300------50/60
------------male------female
-----------age-<5------------
------5-10------
------10-15------2------1
------15-20------------1
------20-30------1
------30-40------
------40-50------
------50-60------1------1
------60-70------
------70-80------
-------------------------------------------
John------Yoder------Berks------Oley------301------20/30
------------male------female
-----------age-<5------------2------
------5-10------1------1
------10-15------
------15-20------
------20-30------1------1
------30-40------
------40-50------
------50-60------
------60-70------
------70-80------
-------------------------------------------
Martin------Yoder------Berks------Oley------301------20/30------(OH1134)
------------male------female
-----------age-<5------------1------
------5-10------
------10-15------
------15-20------
------20-30------1
------30-40------
------40-50------
------50-60------------1
------60-70------
------70-80------
-------------------------------------------
Abraham--Yoder------Berks------Pike------483------50/60------(OH1322)
------------male------female
-----------age-<5------------
------5-10------------1
------10-15------2------2
------15-20------2
------20-30------1------1
------30-40------
------40-50------
------50-60------1------1
------60-70------
------70-80------
-------------------------------------------
Nathan------Yoder------Berks------Pike------483------20/30------(OH13223)
------------male------female
-----------age-<5------------1
------5-10------------
------10-15------1------1
------15-20------
------20-30------1------1
------30-40------
------40-50------
------50-60------------
------60-70------
------70-80------
-------------------------------------------
George------Yoder------Berks------Pike------484------40/50------(OH1321)
------------male------female
-----------age-<5------2------1------
------5-10------1------1
------10-15------------1
------15-20------
------20-30------1------
------30-40------------1
------40-50------1
------50-60------
------60-70------
------70-80------
-------------------------------------------
John------Yader------Berks------Rich------252------50/60
------------male------female
-----------age-<5------1------1------
------5-10------1------2
------10-15------1------1
------15-20------1------1
------20-30------
------30-40------
------40-50------------1
------50-60------1
------60-70------
------70-80------
-------------------------------------------
Benjamin--Yader------Berks------Rock------284------20/30
------------male------female
-----------age-<5------1------1
------5-10------
------10-15------
------15-20------
------20-30------1------1
------30-40------
------40-50------
------50-60------
------60-70------
------70-80------
-------------------------------------------
Jacob------Yader------Berks------Rock------284------20/30
------------male------female
-----------age-<5------------1------
------5-10------
------10-15------1------1
------15-20------1
------20-30------1------1
------30-40------
------40-50------
------50-60------
------60-70------
------70-80------
-------------------------------------------
David------Yoder------Berks------Union------398------20/30------(OH11131)
------------male------female
-----------age-<5------1------1
------5-10------
------10-15------
------15-20------
------20-30------1------1
------30-40------
------40-50------
------50-60------
------60-70------
------70-80------
-------------------------------------------
Frederick--Yoder------Berks------UpBrn------462------20/30------(B)
------------male------female
-----------age-<5------1------1------
------5-10------------1
------10-15------
------15-20------
------20-30------2------1
------30-40------
------40-50------
------50-60------------1
------60-70------
------70-80------
-------------------------------------------
John------Yoder------Berks------UpBrn------470------50/60------(YR177)
------------male------female
-----------age-<5------------
------5-10------------
------10-15------1------1
------15-20------1------1
------20-30------1------2
------30-40------
------40-50------------1
------50-60------1
------60-70------
------70-80------
-------------------------------------------
Jacob------Yoder------Berks------UpBrn------470------50/60------(YR17a)
------------male------female
-----------age-<5------------
------5-10------
------10-15------------1
------15-20------1
------20-30------2------2
------30-40------
------40-50------
------50-60------1------1
------60-70------
------70-80------
-------------------------------------------
Jacob------Yothers------Bucks------Doyle------009------50/60------(YB215)
------------male------female
-----------age-<5------
------5-10------------1
------10-15------------1
------15-20------1
------20-30------1
------30-40------
------40-50------------1
------50-60------1
------60-70------
------70-80------
-------------------------------------------
David------Yothers------Bucks------Nbrit------015------70/80------(YB211)
------------male------female
-----------age-<5------
------5-10------
------10-15------------1
------15-20------1
------20-30------------1
------30-40------
------40-50------
------50-60------
------60-70------------1
------70-80------1
-------------------------------------------
William------Yetter------Bucks------S'amptn------163------40/50
------------male------female
-----------age-<5------2
------5-10------
------10-15------1------1
------15-20------1
------20-30------------1
------30-40------
------40-50------1------1
------50-60------
------60-70------
------70-80------
-------------------------------------------
Abraham--Yothers--Bucks------Sole------103------40/50------(?YB216)
------------male------female
-----------age-<5------
------5-10------
------10-15------------2
------15-20------1
------20-30------
------30-40------
------40-50------1------1
------50-60------
------60-70------
------70-80------
-------------------------------------------
David------Yothers------Bucks------Sole------104------20/30------(YB211)
------------male------female
-----------age-<5------
------5-10------
------10-15------1
------15-20------1
------20-30------1------1
------30-40------
------40-50------
------50-60------
------60-70------
------70-80------
-------------------------------------------
Abraham--Yedder--Bucks------Sprn------259------70/80
------------male------female
-----------age-<5------
------5-10------
------10-15------------1
------15-20------
------20-30------
------30-40------2
------40-50------------1
------50-60------
------60-70------
------70-80------1
-------------------------------------------
Samuel------Yoder------Bucks------W.Rock------313------40/50------(YB244)
------------male------female
-----------age-<5------
------5-10------1
------10-15------
------15-20------1
------20-30------1
------30-40------
------40-50------1------2
------50-60------
------60-70------
------70-80------
-------------------------------------------
Henry------Yoder------Bucks------WRock------313------30/40
------------male------female
-----------age-<5------------1
------5-10------1------1
------10-15------
------15-20------
------20-30------
------30-40------1
------40-50------------1
------50-60------
------60-70------
------70-80------
-------------------------------------------
Isaac------Yatter------Butl------Butl------029------50/60
------------male------female
-----------age-<5------1
------5-10------1------2
------10-15------2
------15-20------------1
------20-30------2------1
------30-40------
------40-50------------1
------50-60------1
------60-70------
------70-80------
-------------------------------------------
Jonas------Yoter------Camb------Cone------013------40/50------(YR2392)
------------male------female
-----------age-<5------1------2
------5-10------1------2
------10-15------------1
------15-20------1------1
------20-30------
------30-40------------1
------40-50------1
------50-60------
------60-70------
------70-80------
-------------------------------------------
Daniel------Yoter------Camb------Cone------014------40/50------(YR2394)
------------male------female
-----------age-<5------1
------5-10------------1
------10-15------1
------15-20------
------20-30------
------30-40------------1
------40-50------1
------50-60------
------60-70------
------70-80------
-------------------------------------------
David------Yoter------Camb------Cone------014------70/80------(YR235)
------------male------female
-----------age-<5------
------5-10------
------10-15------
------15-20------
------20-30------1------1
------30-40------
------40-50------
------50-60------
------60-70------
------70-80------1
-------------------------------------------
Benjamin--Yoter------Camb------Cone------016------20/30
------------male------female
-----------age-<5------------1
------5-10------
------10-15------
------15-20------
------20-30------1------1
------30-40------
------40-50------
------50-60------
------60-70------
------70-80------
-------------------------------------------
Jacob------Yoter------Camb------Rich------048------20/30
------------male------female
-----------age-<5------1------1
------5-10------
------10-15------
------15-20------
------20-30------1------1
------30-40------
------40-50------
------50-60------
------60-70------
------70-80------
-------------------------------------------
Michael------Yoter------Camb------Rich------048------50/60------(YRC8)
------------male------female
-----------age-<5------
------5-10------
------10-15------1------1
------15-20------2
------20-30------
------30-40------
------40-50------
------50-60------1------1
------60-70------
------70-80------
-------------------------------------------
Jonathan--Yoter------Camb------Rich------049------30/40------(YR233d)
------------male------female
-----------age-<5------1
------5-10------1------1
------10-15------2
------15-20------
------20-30------
------30-40------1------1
------40-50------
------50-60------
------60-70------
------70-80------
-------------------------------------------
Martin------Yonner------Camb------Wht------070------30/40
------------male------female
-----------age-<5------2------1
------5-10------1------1
------10-15------
------15-20------
------20-30------
------30-40------1------1
------40-50------
------50-60------
------60-70------
------70-80------
-------------------------------------------
Daniel------Yeathers--Centre------Boggs------100------60/70------(F)
------------male------female
-----------age-<5------
------5-10------
------10-15------
------15-20------
------20-30------1
------30-40------
------40-50------
------50-60------------1
------60-70------1------1
------70-80------
-------------------------------------------
John------Yeathers--Centre------Boggs------100------30/40------(F2)
------------male------female
-----------age-<5------1------1
------5-10------1------1
------10-15------------1
------15-20------
------20-30------
------30-40------1------1
------40-50------
------50-60------
------60-70------
------70-80------
-------------------------------------------
Henry------Yetter------Chest------E.Brad------078------20/30
------------male------female
-----------age-<5------1
------5-10------1
------10-15------
------15-20------------1
------20-30------1
------30-40------
------40-50------
------50-60------
------60-70------1
------70-80------
-------------------------------------------
Mary------Yoder------Chest------W.Caln------003------50/60------(w/o-YR1424)
------------male------female
-----------age-<5------
------5-10------------1
------10-15------1
------15-20------
------20-30------1
------30-40------
------40-50------
------50-60------------1
------60-70------
------70-80------
-------------------------------------------
John------Yoder------Chest------W.Nan------039------30/40
------------male------female
-----------age-<5------2------1
------5-10------1
------10-15------
------15-20------
------20-30------
------30-40------1------1
------40-50------
------50-60------
------60-70------
------70-80------
-------------------------------------------
John------Youger------Clear------Gird------310------50/60
------------male------female
-----------age-<5------
------5-10------
------10-15------
------15-20------
------20-30------
------30-40------
------40-50------
------50-60------1
------60-70------------2
------70-80------
-------------------------------------------
Peter------Yoder------Clint------Lamar------351------20/30
------------male------female
-----------age-<5------1
------5-10------
------10-15------
------15-20------1
------20-30------1------2
------30-40------
------40-50------
------50-60------
------60-70------
------70-80------
-------------------------------------------
Henry------Yider------Clint------Wayne------319------60/70
------------male------female
-----------age-<5------
------5-10------
------10-15------
------15-20------------1
------20-30------
------30-40------
------40-50------
------50-60------
------60-70------1------1
------70-80------------2
-------------------------------------------
William------Yoder------Colum------Cata------169------20/30
------------male------female
-----------age-<5------------1
------5-10------
------10-15------
------15-20------1
------20-30------1------1
------30-40------
------40-50------
------50-60------
------60-70------
------70-80------
-------------------------------------------

Jared------Yetter------Colum------Cata------170------30/40------(?Jacob)-(Y12)
------------male------female
-----------age-<5------
------5-10------1
------10-15------
------15-20------
------20-30------
------30-40------1------1
------40-50------
------50-60------
------60-70------
------70-80------
-------------------------------------------
John------Yetter------Colum------Cata------170------30/40------(Y11)
------------male------female
-----------age-<5------
------5-10------
------10-15------
------15-20------
------20-30------------1
------30-40------
------40-50------1------1
------50-60------
------60-70------
------70-80------
-------------------------------------------
Lewis------Yetter------Colum------Cata------170------40/50------(Y13&14)
------------male------female
-----------age-<5------
------5-10------
------10-15------
------15-20------
------20-30------2------1
------30-40------
------40-50------
------50-60------
------60-70------
------70-80------
-------------------------------------------
Daniel------Yetter------Colum------Cata------171------50/60------(Y3)
------------male------female
-----------age-<5------
------5-10------
------10-15------1
------15-20------------2
------20-30------
------30-40------
------40-50------------1
------50-60------1
------60-70------
------70-80------
-------------------------------------------
Jacob------Yetter------Colum------Cata------171------50/60------(Y2)
------------male------female
-----------age-<5------------2
------5-10------------2
------10-15------1
------15-20------------1
------20-30------1
------30-40------
------40-50------------1
------50-60------1
------60-70------
------70-80------
-------------------------------------------
Isaac------Yetter------Colum------Cata------172------30/40------(Y23)
------------male------female
-----------age-<5------1------2
------5-10------------2
------10-15------------1
------15-20------2
------20-30------1------1
------30-40------1
------40-50------
------50-60------
------60-70------
------70-80------
-------------------------------------------
Joseph------Yetter------Colum------Cata------173------40/50------(Y9)
------------male------female
-----------age-<5------------
------5-10------------
------10-15------------
------15-20------
------20-30------------
------30-40------------1
------40-50------1
------50-60------
------60-70------
------70-80------
-------------------------------------------
Samuel------Yetter------Colum------Cata------173------40/50------(Y5)
------------male------female
-----------age-<5------1
------5-10------2
------10-15------1------1
------15-20------
------20-30------------1
------30-40------
------40-50------1------1
------50-60------
------60-70------
------70-80------
-------------------------------------------
John-Jr------Yeager------Colum------RrCrk------182------20/30------(sic)
------------male------female
-----------age-<5------
------5-10------
------10-15------------1
------15-20------1
------20-30------
------30-40------
------40-50------
------50-60------1------1
------60-70------
------70-80------
-------------------------------------------
John-Sr------Yeather------Colum------RrCrk------182------50/60------next-door
------------male------female
-----------age-<5------2------1
------5-10------
------10-15------
------15-20------
------20-30------1
------30-40------------1
------40-50------
------50-60------
------60-70------
------70-80------
-------------------------------------------
John------Yetter------Cumb------S'amp------068------50/60
------------male------female
-----------age-<5------
------5-10------
------10-15------
------15-20------1------1
------20-30------2------1
------30-40------
------40-50------
------50-60------1------1
------60-70------
------70-80------
-------------------------------------------
Hezikih------Yotter------Cumb------SMidd------143------20/30
------------male------female
-----------age-<5------------1
------5-10------
------10-15------
------15-20------1
------20-30------1------1
------30-40------
------40-50------
------50-60------
------60-70------
------70-80------
-------------------------------------------
John------Yetter------Daup------Derry------262------40/50
------------male------female
-----------age-<5------
------5-10------2
------10-15------------2
------15-20------------1
------20-30------1
------30-40------
------40-50------1------1
------50-60------
------60-70------
------70-80------
-------------------------------------------
George------Yoder------Fayt------Bulls------383------50/60------(YB257)
------------male------female
-----------age-<5------------2
------5-10------1
------10-15------
------15-20------
------20-30------------1
------30-40------1
------40-50------
------50-60------
------60-70------
------70-80------
-------------------------------------------
John------Youger------Fayt------Germ------311------20/30
------------male------female
-----------age-<5------------1
------5-10------
------10-15------
------15-20------1
------20-30------1------1------
------30-40------
------40-50------
------50-60------
------60-70------
------70-80------
-------------------------------------------
Henry------Yoter------Fayt------HClay------442------20/30
------------male------female
-----------age-<5------1------1
------5-10------
------10-15------
------15-20------
------20-30------1------1
------30-40------
------40-50------
------50-60------
------60-70------
------70-80------
-------------------------------------------
Jacob------Yothers------Fayt------SltLk------393------30/40------(YB2141)
------------male------female
-----------age-<5------
------5-10------------1
------10-15------2
------15-20------
------20-30------
------30-40------1
------40-50------------1
------50-60------
------60-70------
------70-80------
-------------------------------------------
John------Yothers------Fayt------SltLk------399------30/40------(YB2148)
------------male------female
-----------age-<5------1------1
------5-10------1------1
------10-15------1
------15-20------
------20-30------
------30-40------1------1
------40-50------
------50-60------
------60-70------
------70-80------
-------------------------------------------
Henry------Youger------Fayt------Union------339------50/60
------------male------female
-----------age-<5------------1
------5-10------1
------10-15------
------15-20------
------20-30------
------30-40------
------40-50------
------50-60------1------1
------60-70------
------70-80------
-------------------------------------------
John------Youger------Fayt------Union------339------30/40
------------male------female
-----------age-<5------------1
------5-10------
------10-15------
------15-20------1
------20-30------------1
------30-40------1
------40-50------
------50-60------
------60-70------
------70-80------
-------------------------------------------
Joseph------Yeider------Green------Jeff------124------40/50
------------male------female
-----------age-<5------------1
------5-10------------1
------10-15------1
------15-20------1
------20-30------------1
------30-40------
------40-50------1
------50-60------
------60-70------
------70-80------
-------------------------------------------
George------Yader------Green------Mono------120------70/80
------------male------female
-----------age-<5------
------5-10------1
------10-15------
------15-20------1------1
------20-30------2
------30-40------
------40-50------
------50-60------
------60-70------------1
------70-80------1
-------------------------------------------
George------Yeoders------Green------Morg------067------50/60
------------male------female
-----------age-<5------2
------5-10------1
------10-15------------2
------15-20------
------20-30------
------30-40------------1
------40-50------1
------50-60------1------1
------60-70------
------70-80------
-------------------------------------------
Lindsey------Yeoders------Green------Morg------067------20/30
------------male------female
-----------age-<5------------1
------5-10------1
------10-15------1
------15-20------------1
------20-30------1
------30-40------
------40-50------------1
------50-60------
------60-70------
------70-80------
-------------------------------------------
Grge-Jr------Yeoders------Green------Morg------067------20/30
------------male------female
-----------age-<5------1
------5-10------
------10-15------
------15-20------
------20-30------2------1
------30-40------
------40-50------
------50-60------
------60-70------
------70-80------
-------------------------------------------
Cathern------Yeater------Green------Wayne------013------40/50
------------male------female
-----------age-<5------
------5-10------
------10-15------
------15-20------
------20-30------1------1
------30-40------
------40-50------------1
------50-60------
------60-70------
------70-80------
-------------------------------------------
Eli------Yoder------Hunt------Blair------161------20/30
------------male------female
-----------age-<5------1------1
------5-10------1
------10-15------
------15-20------
------20-30------1------1
------30-40------
------40-50------
------50-60------
------60-70------
------70-80------
-------------------------------------------
Simon------Yoder------Hunt------Hend------210------20/30
------------male------female
-----------age-<5------1
------5-10------
------10-15------
------15-20------
------20-30------1------1
------30-40------
------40-50------
------50-60------
------60-70------
------70-80------
-------------------------------------------
Daniel------Yoder------Hunt------Hend------211------50/60
------------male------female
-----------age-<5------
------5-10------
------10-15------1------1
------15-20------1------1
------20-30------1
------30-40------
------40-50------
------50-60------1------1
------60-70------
------70-80------
-------------------------------------------
David------Yoder------Hunt------Hend------211------30/40
------------male------female
-----------age-<5------1------1
------5-10------2
------10-15------------1
------15-20------1
------20-30------1
------30-40------1------1
------40-50------
------50-60------
------60-70------
------70-80------
-------------------------------------------
David------Yeater------Hunt------Wdbrr------149------30/40
------------male------female
-----------age-<5------2
------5-10------
------10-15------
------15-20------
------20-30------------1
------30-40------1
------40-50------
------50-60------
------60-70------
------70-80------
-------------------------------------------
John------Yeater------Hunt------Wdbrr------150------40/50
------------male------female
-----------age-<5------2------1
------5-10------1
------10-15------1
------15-20------
------20-30------
------30-40------------1
------40-50------1
------50-60------
------60-70------
------70-80------
-------------------------------------------
Benjamin--Yoder------Juni------Del------215------40/50
------------male------female
-----------age-<5------2------1
------5-10------1------2
------10-15------
------15-20------1------2
------20-30------1
------30-40------
------40-50------1------1
------50-60------
------60-70------
------70-80------
-------------------------------------------
Peter------Yoder------Juni------Del------215------50/60
------------male------female
-----------age-<5------------1
------5-10------2------1
------10-15------------1
------15-20------
------20-30------
------30-40------
------40-50------------1
------50-60------1
------60-70------
------70-80------
-------------------------------------------
David------Yoder------Juni------Miff------199------30/40------(YR2618)
------------male------female
-----------age-<5------------2
------5-10------1
------10-15------2
------15-20------
------20-30------
------30-40------1------1
------40-50------
------50-60------
------60-70------
------70-80------
-------------------------------------------
Michael------Yoder------Juni------Miff------199------20/30
------------male------female
-----------age-<5------1
------5-10------
------10-15------
------15-20------------1
------20-30------1------1
------30-40------
------40-50------
------50-60------
------60-70------
------70-80------
-------------------------------------------
John------Yoder------Juni------Miff------200------30/40------(YR2573)
------------male------female
-----------age-<5------1------1
------5-10------2------1
------10-15------
------15-20------
------20-30------
------30-40------1------1
------40-50------
------50-60------
------60-70------
------70-80------
-------------------------------------------
Jacob------Yoder------Juni------Miff------201------30/40
------------male------female
-----------age-<5------1------1
------5-10------1
------10-15------
------15-20------
------20-30------------1
------30-40------1
------40-50------
------50-60------
------60-70------
------70-80------
-------------------------------------------
John-Jr------Yoder------Juni------Turb------246------30/40
------------male------female
-----------age-<5------1------1
------5-10------2------1
------10-15------1------1
------15-20------1------1
------20-30------
------30-40------1------1
------40-50------
------50-60------
------60-70------
------70-80------
-------------------------------------------
John-Sr------Yoder------Juni------Turb------246------60/70
------------male------female
-----------age-<5------
------5-10------
------10-15------
------15-20------
------20-30------------1
------30-40------
------40-50------
------50-60------
------60-70------1------1
------70-80------
-------------------------------------------
Reuben------Yoder------Juni------Turb------246------30/40
------------male------female
-----------age-<5------------2
------5-10------
------10-15------1
------15-20------
------20-30------------2
------30-40------1
------40-50------
------50-60------
------60-70------
------70-80------
-------------------------------------------
Christian--Yoder------Juni------Turb------247------30/40
------------male------female
-----------age-<5------1
------5-10------
------10-15------
------15-20------1
------20-30------------1
------30-40------1
------40-50------
------50-60------
------60-70------
------70-80------
-------------------------------------------
Joseph------Yoder------Juni------Turb------247------60/70------(YR257)
------------male------female
-----------age-<5------
------5-10------
------10-15------
------15-20------1
------20-30------2------1
------30-40------------2
------40-50------
------50-60------
------60-70------1------1
------70-80------
-------------------------------------------
Jacob------Yoder------Juni------Turb------251------20/30
------------male------female
-----------age-<5------1------2
------5-10------------1
------10-15------1
------15-20------
------20-30------2------2
------30-40------
------40-50------
------50-60------
------60-70------
------70-80------
-------------------------------------------
John------Yoder------Juni------Turb------252------30/40
------------male------female
-----------age-<5------1
------5-10------1------2
------10-15------
------15-20------
------20-30------------1
------30-40------1
------40-50------
------50-60------
------60-70------
------70-80------
-------------------------------------------
Mathew------Yoder------Juni------Tusc------256------20/30
------------male------female
-----------age-<5------
------5-10------
------10-15------
------15-20------
------20-30------1------1
------30-40------
------40-50------
------50-60------
------60-70------
------70-80------
-------------------------------------------
Jonathan--Yoder------Juni------Tusc------258------40/50
------------male------female
-----------age-<5------------2
------5-10------1
------10-15------1------1
------15-20------1------1
------20-30------1
------30-40------
------40-50------1------1
------50-60------
------60-70------
------70-80------
-------------------------------------------
Joseph------Yoder------Juni------Tusc------258------40/50
------------male------female
-----------age-<5------1------1
------5-10------------2
------10-15------1------3
------15-20------
------20-30------
------30-40------
------40-50------1------1
------50-60------
------60-70------
------70-80------
-------------------------------------------
Joel------Yoder------Juni------Walk------203------40/50------(YR2571)
------------male------female
-----------age-<5------1------1
------5-10------1------1
------10-15------------2
------15-20------
------20-30------1
------30-40------------1
------40-50------1
------50-60------
------60-70------
------70-80------
-------------------------------------------
Jacob------Yeater------Juni------Walk------205------20/30
------------male------female
-----------age-<5------------1
------5-10------
------10-15------
------15-20------
------20-30------1------1
------30-40------
------40-50------
------50-60------
------60-70------
------70-80------
-------------------------------------------
Jacob------Yoder------Lanc-----------------319------30/40
------------male------female
-----------age-<5------1------2
------5-10------1
------10-15------1
------15-20------
------20-30------
------30-40------1------1
------40-50------
------50-60------
------60-70------
------70-80------
-------------------------------------------
Yost------Yoder------Lanc------Caern------470------30/40
------------male------female
-----------age-<5------------2
------5-10------1------1
------10-15------2
------15-20------
------20-30------
------30-40------1------1
------40-50------
------50-60------
------60-70------
------70-80------
-------------------------------------------
Samuel------Yetter------Lanc------E.Don------115------40/50
------------male------female
-----------age-<5------1
------5-10------
------10-15------------1
------15-20------------1
------20-30------
------30-40------
------40-50------1------1
------50-60------
------60-70------
------70-80------
-------------------------------------------
Mary------Yetter------Lanc------Rapho------064------20/30
------------male------female
-----------age-<5------------1
------5-10------2
------10-15------
------15-20------
------20-30------------1
------30-40------
------40-50------
------50-60------
------60-70------
------70-80------
-------------------------------------------
Daniel------Yoder------Lanc------Stras------302------40/50
------------male------female
-----------age-<5------1
------5-10------1
------10-15------1------1
------15-20------
------20-30------1------1
------30-40------
------40-50------1------1
------50-60------
------60-70------
------70-80------
-------------------------------------------
Joseph------Yoder------Lehi----------------187------30/40------(YB1133)
------------male------female
-----------age-<5------2
------5-10------------1
------10-15------1
------15-20------------1
------20-30------
------30-40------1------1
------40-50------
------50-60------
------60-70------
------70-80------
-------------------------------------------
John------Yoder------Lehi------Han------174------40/50------(A)
------------male------female
-----------age-<5------3
------5-10------2
------10-15------------1
------15-20------
------20-30------
------30-40------------1
------40-50------1
------50-60------
------60-70------
------70-80------
-------------------------------------------
David------Yodder------Lehi------S.--hites------270------30/40------
------------male------female
-----------age-<5------1------1
------5-10------2
------10-15------1
------15-20------1
------20-30------------3
------30-40------1
------40-50------
------50-60------
------60-70------
------70-80------
-------------------------------------------
Gideon------Yoder------Lehi------UpMah------199------70/80
------------male------female
-----------age-<5------------1
------5-10------
------10-15------
------15-20------1------1
------20-30------5------2
------30-40------
------40-50------------1
------50-60------
------60-70------
------70-80------1
-------------------------------------------
Jacob------Yoder------Lehi------UpSau------187------50/60------(YB139)
------------male------female
-----------age-<5------2------
------5-10------1------1
------10-15------2
------15-20------------1
------20-30------1------1
------30-40------1
------40-50------------1
------50-60------1
------60-70------
------70-80------
-------------------------------------------
Jacob-Sr------Yoder------Lehi------UpSau------187------50/60------(YB117)
------------male------female
-----------age-<5------
------5-10------
------10-15------
------15-20------------1
------20-30------1------1
------30-40------
------40-50------
------50-60------1------1
------60-70------
------70-80------
-------------------------------------------
John------Yoder------Lehi------UpSau------188------30/40------(YB1131)
------------male------female
-----------age-<5------1
------5-10------------1
------10-15------
------15-20------
------20-30------1------2
------30-40------1
------40-50------
------50-60------
------60-70------
------70-80------
-------------------------------------------
Peter------Yoder------Lehi------UpSau------188------30/40------(YB1132)
------------male------female
-----------age-<5------1------1
------5-10------
------10-15------1
------15-20------
------20-30------1------2
------30-40------2
------40-50------
------50-60------
------60-70------
------70-80------
-------------------------------------------
Berry-(f)------Yoder------Lehi------UpSauc------188------60/70------(w/oYB116)
------------male------female
-----------age-<5------
------5-10------
------10-15------
------15-20------
------20-30------
------30-40------
------40-50------
------50-60------------2
------60-70------------1
------70-80------
-------------------------------------------
John------Yorder------Lyco------Jack------152------20/30
------------male------female
-----------age-<5------2
------5-10------1
------10-15------
------15-20------
------20-30------1------1
------30-40------
------40-50------
------50-60------
------60-70------
------70-80------
-------------------------------------------
T.J.------Yoner------Lyco------Jers------083------30/40
------------male------female
-----------age-<5------3------1
------5-10------5
------10-15------------1
------15-20------1
------20-30------
------30-40------1------1
------40-50------
------50-60------
------60-70------
------70-80------
-------------------------------------------
Simon------Yader------Lyco------Wms------115------20/30
------------male------female
-----------age-<5------
------5-10------
------10-15------
------15-20------------2
------20-30------1------
------30-40------
------40-50------
------50-60------
------60-70------
------70-80------
-------------------------------------------
Catherine--Yoder------Miff------Brwn------044------60/70------(w/o-YR253)
------------male------female
-----------age-<5------
------5-10------
------10-15------
------15-20------
------20-30------
------30-40------
------40-50------------1
------50-60------
------60-70------------1
------70-80------
-------------------------------------------
Gideon------Yoder------Miff------Brwn------044------------------(YR1651)
------------male------female
-----------age-<5------
------5-10------
------10-15------
------15-20------------Do-not-have-data
------20-30------
------30-40------
------40-50------
------50-60------
------60-70------
------70-80------
-------------------------------------------
Sarah------Yoder------Miff------Brwn------044----------
------------male------female
-----------age-<5------
------5-10------
------10-15------------Do-not-have-data
------15-20------
------20-30------
------30-40------
------40-50------
------50-60------
------60-70------
------70-80------
-------------------------------------------
Christian--Yoder------Miff------Brwn------045------50/60
------------male------female
-----------age-<5------------
------5-10------2------1
------10-15------1------1
------15-20------1------1
------20-30------2
------30-40------
------40-50------
------50-60------1------1
------60-70------
------70-80------
-------------------------------------------
John------Yoder------Miff------Brwn------046------20/30
------------male------female
-----------age-<5------
------5-10------------1
------10-15------1
------15-20------1
------20-30------1
------30-40------------1
------40-50------
------50-60------
------60-70------
------70-80------
-------------------------------------------
David------Yoder------Miff------Decatr------062------20/30
------------male------female
-----------age-<5------1
------5-10------1
------10-15------1
------15-20------------1
------20-30------1
------30-40------------1
------40-50------
------50-60------
------60-70------
------70-80------
-------------------------------------------
George------Yoder------Miff------Decatr------062------30/40
------------male------female
-----------age-<5------2
------5-10------
------10-15------
------15-20------
------20-30------------1
------30-40------1
------40-50------
------50-60------
------60-70------
------70-80------
-------------------------------------------
John------Yoder------Miff------Decatr------062------40/50
------------male------female
-----------age-<5------2------1
------5-10------1
------10-15------2
------15-20------
------20-30------
------30-40------------1
------40-50------1
------50-60------
------60-70------
------70-80------
-------------------------------------------
Lowderith--Yoder--Miff------Decatr------065------30/40
------------male------female
-----------age-<5------2------1
------5-10------2
------10-15------1------1
------15-20------
------20-30------
------30-40------1------1
------40-50------
------50-60------
------60-70------
------70-80------
-------------------------------------------
Jacob------Yoder------Miff------Decatr------065------60/70
------------male------female
-----------age-<5------
------5-10------
------10-15------
------15-20------
------20-30------
------30-40------
------40-50------------1
------50-60------
------60-70------1
------70-80------
-------------------------------------------
Jacob-Jr------Yoder------Miff------Decatr------065------30/40
------------male------female
-----------age-<5------1------2
------5-10------1------1
------10-15------
------15-20------
------20-30------------1
------30-40------1
------40-50------
------50-60------
------60-70------
------70-80------
-------------------------------------------
Jonathan--Yoder------Miff------Decatr------065------30/40
------------male------female
-----------age-<5------1------1
------5-10------1------1
------10-15------
------15-20------
------20-30------------1
------30-40------1
------40-50------
------50-60------
------60-70------
------70-80------
-------------------------------------------
Joseph------Yoder------Miff------Decatr------065------30/40
------------male------female
-----------age-<5------
------5-10------------1
------10-15------1
------15-20------
------20-30------------1
------30-40------1
------40-50------
------50-60------
------60-70------
------70-80------
-------------------------------------------
Christian--Yoder------Miff------Oliv------012------40/50------(YR1274)
------------male------female
-----------age-<5------1
------5-10------------2
------10-15------
------15-20------
------20-30------
------30-40------------1
------40-50------1
------50-60------
------60-70------
------70-80------
-------------------------------------------
Joseph------Yoder------Miff------Oliv------012------30/40------(YR1279)
------------male------female
-----------age-<5------1
------5-10------1------3
------10-15------
------15-20------
------20-30------
------30-40------1------1
------40-50------
------50-60------
------60-70------
------70-80------
-------------------------------------------
Christian--Yoder------Miff------Oliv------018------50/60------(YR2514)
------------male------female
-----------age-<5------
------5-10------1
------10-15------1
------15-20------1------1
------20-30------2
------30-40------
------40-50------
------50-60------1------1
------60-70------
------70-80------
-------------------------------------------
Francis------Yoder------Miff------Oliv------018------50/60
------------male------female
-----------age-<5------
------5-10------
------10-15------
------15-20------
------20-30------------1
------30-40------
------40-50------
------50-60------------1
------60-70------
------70-80------
-------------------------------------------
John------Yoder------Miff------Oliv------018------50/60------(YRB11)
------------male------female
-----------age-<5------
------5-10------
------10-15------1
------15-20------1------1
------20-30------1
------30-40------
------40-50------
------50-60------1------1
------60-70------
------70-80------
-------------------------------------------
Samuel------Yoder------Miff------Oliv------019------20/30
------------male------female
-----------age-<5------
------5-10------
------10-15------
------15-20------
------20-30------1------1
------30-40------
------40-50------
------50-60------
------60-70------
------70-80------
-------------------------------------------
Christian--Yoder------Miff------Oliv------020------40/50------(YRB17)
------------male------female
-----------age-<5------3------1
------5-10------1------2
------10-15------1
------15-20------2
------20-30------------1
------30-40------
------40-50------1------1
------50-60------
------60-70------
------70-80------
-------------------------------------------
David------Yoder------Miff------Oliv------021------20/30
------------male------female
-----------age-<5------------1
------5-10------
------10-15------
------15-20------------1
------20-30------2------1
------30-40------
------40-50------
------50-60------
------60-70------
------70-80------
-------------------------------------------
Samuel-------Yoder------Miff------Oliv------038------30/40--------(YR1771)
------------male------female
-----------age-<5------------2
------5-10------2------1
------10-15------
------15-20------
------20-30------1
------30-40------1------1
------40-50------
------50-60------
------60-70------
------70-80------
-------------------------------------------
Daniel------Yoder------Miff------Oliv------041------40/50------(YR1285)
------------male------female
-----------age-<5------
------5-10------
------10-15------1------1
------15-20------
------20-30------
------30-40------------1
------40-50------1
------50-60------
------60-70------
------70-80------
-------------------------------------------
Christian--Yoder------Miff------Union------056------30/40
------------male------female
-----------age-<5------------1
------5-10------1
------10-15------------1
------15-20------
------20-30------------1
------30-40------1
------40-50------
------50-60------
------60-70------
------70-80------
-------------------------------------------
John------Yoder------Miff------Union------056------30/40
------------male------female
-----------age-<5------1------1
------5-10------
------10-15------1
------15-20------------1
------20-30------------1
------30-40------1
------40-50------
------50-60------
------60-70------
------70-80------
-------------------------------------------
Moses------Yoder------Miff------Union------056------30/40
------------male------female
-----------age-<5------------
------5-10------2
------10-15------
------15-20------1
------20-30------------1
------30-40------1------
------40-50------
------50-60------
------60-70------
------70-80------
-------------------------------------------
Benjamin-Yoder------Miff------Union------058------20/30
------------male------female
-----------age-<5------------1
------5-10------
------10-15------
------15-20------
------20-30------1------1
------30-40------
------40-50------
------50-60------
------60-70------
------70-80------
-------------------------------------------
Isaac------Yoder------Miff------Union------058------30/40------(YR2683)
------------male------female
-----------age-<5------2------1
------5-10------1
------10-15------1
------15-20------
------20-30------
------30-40------1------1
------40-50------
------50-60------
------60-70------
------70-80------
-------------------------------------------
Nancy------Yoder------Miff------Union------058------40/50------(w/oYR2534)
------------male------female
-----------age-<5------
------5-10------
------10-15------2
------15-20------1
------20-30------1------1
------30-40------
------40-50------------1
------50-60------
------60-70------
------70-80------
-------------------------------------------
Jonathan--Yoder------Miff------Union------059------20/30------(w/o-YR268)
------------male------female
-----------age-<5------
------5-10------
------10-15------
------15-20------------1
------20-30------1
------30-40------
------40-50------
------50-60------------1
------60-70------
------70-80------
-------------------------------------------
Joseph------Yoder------Miff------Union------059------20/30
------------male------female
-----------age-<5------1
------5-10------1
------10-15------------?
------15-20------------2
------20-30------2------1
------30-40------
------40-50------
------50-60------
------60-70------
------70-80------
-------------------------------------------
Samuel------Yoder------Miff------Union------059------30/40------(?YR2681)
------------male------female
-----------age-<5------------1
------5-10------------1
------10-15------2
------15-20------1------1
------20-30------------1
------30-40------1
------40-50------
------50-60------
------60-70------
------70-80------
-------------------------------------------
Michael------Yoder------Miff------Union------060------60/70------(YR164)
------------male------female
-----------age-<5------
------5-10------
------10-15------
------15-20------------1
------20-30------
------30-40------
------40-50------
------50-60------
------60-70------1------
------70-80------------1
-------------------------------------------
Nicholas--Yoder------Miff------Union------060------30/40------(YR2536)
------------male------female
-----------age-<5------
------5-10------2------1
------10-15------
------15-20------
------20-30------------1
------30-40------1
------40-50------
------50-60------
------60-70------
------70-80------
-------------------------------------------
Gabriel------Yoder------Miff------Union------061------20/30------(YR2687)
------------male------female
-----------age-<5------2
------5-10------
------10-15------1
------15-20------
------20-30------1------1
------30-40------
------40-50------
------50-60------
------60-70------
------70-80------
-------------------------------------------
John------Yoder------Miff------Union------061------40/50
------------male------female
-----------age-<5------
------5-10------1
------10-15------------1
------15-20------
------20-30------
------30-40------
------40-50------1------1
------50-60------
------60-70------
------70-80------
-------------------------------------------
Lever------Yoder------Miff------Union------061------30/40
------------male------female
-----------age-<5------1
------5-10------1------1
------10-15------1
------15-20------
------20-30------
------30-40------1------1
------40-50------
------50-60------
------60-70------
------70-80------
-------------------------------------------
Abraham--Yetter------Monr------Coolb------336------50/60
------------male------female
-----------age-<5------
------5-10------
------10-15------
------15-20------------1
------20-30------
------30-40------
------40-50------1
------50-60------1------1
------60-70------
------70-80------
-------------------------------------------
David------Yetter------Monr------LSmth------332------20/30
------------male------female
-----------age-<5------2------1
------5-10------
------10-15------
------15-20------
------20-30------1
------30-40------
------40-50------
------50-60------
------60-70------
------70-80------
-------------------------------------------
John------Yetter------Monr------LSmth------332------40/50
------------male------female
-----------age-<5------
------5-10------
------10-15------
------15-20------1
------20-30------
------30-40------
------40-50------1
------50-60------
------60-70------------1
------70-80------
-------------------------------------------
John------Yetter------Monr------MiddS------347------20/30
------------male------female
-----------age-<5------
------5-10------
------10-15------
------15-20------
------20-30------1------1
------30-40------
------40-50------
------50-60------
------60-70------
------70-80------
-------------------------------------------
Jacob------Yetter------Monr------MiddS------348------50/60
------------male------female
-----------age-<5------
------5-10------1------2
------10-15------------1
------15-20------1------2
------20-30------
------30-40------
------40-50------
------50-60------1------1
------60-70------
------70-80------
-------------------------------------------
Aaron------Yetter------Monr------MiddS------348------20/30
------------male------female
-----------age-<5------
------5-10------1
------10-15------
------15-20------------1------not-in-index
------20-30------1
------30-40------
------40-50------
------50-60------
------60-70------
------70-80------
-------------------------------------------
Henry------Yetter------Monr------Pocon------369------30/40
------------male------female
-----------age-<5------3
------5-10------2------1
------10-15------
------15-20------1------1
------20-30------
------30-40------1------1
------40-50------
------50-60------
------60-70------
------70-80------
-------------------------------------------
Jacob------Yoder------Mont------Doug------113------30/40------(YB256)
------------male------female
-----------age-<5------2------2
------5-10------1------1
------10-15------
------15-20------
------20-30------
------30-40------1------1
------40-50------
------50-60------
------60-70------
------70-80------
-------------------------------------------
John------Yoder------Mont------Fran------068------40/50------(YR245)
------------male------female
-----------age-<5------
------5-10------------1
------10-15------2
------15-20------
------20-30------
------30-40------------1
------40-50------1------1
------50-60------
------60-70------
------70-80------
-------------------------------------------
Abraham--Yoter------Mont------Fran------069------50/60------(YR242)
------------male------female
-----------age-<5------
------5-10------
------10-15------1------2
------15-20------------1
------20-30------1------2
------30-40------
------40-50------------1
------50-60------1
------60-70------
------70-80------
-------------------------------------------
Martin------Yeoder------Mont------Hatf------077----------
------------male------female
-----------age-<5------
------5-10------
------10-15------
------15-20------
------20-30------
------30-40------
------40-50------
------50-60------1------1
------60-70------
------70-80------
-------------------------------------------
Lewis------Yetter------Mont------Plym------256------30/40
------------male------female
-----------age-<5------
------5-10------
------10-15------1
------15-20------
------20-30------
------30-40------1
------40-50------
------50-60------
------60-70------
------70-80------
-------------------------------------------
Abraham--Yoder------Mont------UpHan------123------15/20------(w/oYB25)
------------male------female
-----------age-<5------
------5-10------
------10-15------2------1
------15-20------1
------20-30------1------1
------30-40------
------40-50------
------50-60------
------60-70------------1
------70-80------
-------------------------------------------
John------Yoder------Mont------UpHan------123------20/30------(YB254)
------------male------female
-----------age-<5------------3
------5-10------1
------10-15------
------15-20------1
------20-30------
------30-40------1------1
------40-50------
------50-60------
------60-70------
------70-80------
-------------------------------------------
George------Yetter------N'ampt------L.Mt------062------20/30
------------male------female
-----------age-<5------1------1
------5-10------
------10-15------1
------15-20------
------20-30------1------1
------30-40------
------40-50------
------50-60------
------60-70------
------70-80------
-------------------------------------------
Joseph------Yetter------N'ampt------UpMt------091------50/60
------------male------female
-----------age-<5------1
------5-10------------2
------10-15------------1
------15-20------1------1
------20-30------1
------30-40------
------40-50------------1
------50-60------1
------60-70------
------70-80------
-------------------------------------------
Abraham--Yodder--N'umb------Jack------225------30/40
------------male------female
-----------age-<5------1------1
------5-10------1------2
------10-15------
------15-20------
------20-30------------1
------30-40------1
------40-50------
------50-60------
------60-70------
------70-80------
-------------------------------------------
Isaac------Yoder------N'umb------UpMah------184------20/30
------------male------female
-----------age-<5------
------5-10------
------10-15------
------15-20------
------20-30------1------1
------30-40------
------40-50------
------50-60------
------60-70------
------70-80------
-------------------------------------------
Peter------Yetter------Phila------Kens------136------40/50
------------male------female
-----------age-<5------1
------5-10------1
------10-15------2
------15-20------
------20-30------
------30-40------
------40-50------1------1
------50-60------
------60-70------
------70-80------
-------------------------------------------
Sarah------Yetter------Phila------N.Lib------154------80/90
------------male------female
-----------age-<5------
------5-10------
------10-15------
------15-20------
------20-30------
------30-40------
------40-50------
------50-60------
------60-70------
------70-80------
------80-90------------1
-------------------------------------------
J.------Yeaters------Phila------S.War------108------20/30
------------male------female
-----------age-<5------
------5-10------
------10-15------
------15-20------------1
------20-30------1------1
------30-40------
------40-50------
------50-60------
------60-70------
------70-80------
-------------------------------------------
Daniel------Yoder------Schyl------Orwig------035------50/60
------------male------female
-----------age-<5------
------5-10------1
------10-15------1
------15-20------
------20-30------
------30-40------
------40-50------------1
------50-60------1
------60-70------
------70-80------
-------------------------------------------
Elias------Yoder------Schyl------PnGro------072------30/40
------------male------female
-----------age-<5------------1
------5-10------1------2
------10-15------1------
------15-20------------
------20-30------------1
------30-40------1------
------40-50------
------50-60------
------60-70------
------70-80------
-------------------------------------------
Solomon--Yoder------Schyl------UpMah------094------40/50
------------male------female
-----------age-<5------3
------5-10------1------1
------10-15------
------15-20------3
------20-30------
------30-40------------1
------40-50------1
------50-60------
------60-70------
------70-80------
-------------------------------------------
Widow------Yoder------Schyl------UpMah------094------40/50
------------male------female
-----------age-<5------------1
------5-10------3
------10-15------------1
------15-20------------2
------20-30------
------30-40------
------40-50------------1
------50-60------
------60-70------
------70-80------
-------------------------------------------
Widow------Yoder------Schyl------UpMah------094------40/50
------------male------female
-----------age-<5------
------5-10------
------10-15------------1
------15-20------1------1
------20-30------1------1
------30-40------
------40-50------------1
------50-60------
------60-70------
------70-80------
-------------------------------------------
Jacob------Yoner------Som------Alle------014------50/60
------------male------female
-----------age-<5------
------5-10------
------10-15------
------15-20------
------20-30------
------30-40------
------40-50------
------50-60------1------1
------60-70------
------70-80------
-------------------------------------------
Solomon--Yoder------Som------BroVl------036------30/40------(YR1217)
------------male------female
-----------age-<5------------2
------5-10------
------10-15------
------15-20------------1
------20-30------------1
------30-40------1
------40-50------
------50-60------
------60-70------
------70-80------
-------------------------------------------
Joseph-Jr--Yoder------Som------Cone------019------50/60------(YR2334)
------------male------female
-----------age-<5------
------5-10------
------10-15------2
------15-20------------1
------20-30------
------30-40------
------40-50------
------50-60------1------1
------60-70------
------70-80------
-------------------------------------------
Jeptha------Yoder------Som------Cone------019------50/60------(YR23d)
------------male------female
-----------age-<5------
------5-10------
------10-15------
------15-20------1------1
------20-30------1
------30-40------
------40-50------
------50-60------1------1
------60-70------
------70-80------
-------------------------------------------
Stephen------Yoder------Som------Cone------019------20/30------(YR23441)
------------male------female
-----------age-<5------1------2
------5-10------------1
------10-15------1
------15-20------
------20-30------1------1
------30-40------
------40-50------
------50-60------
------60-70------
------70-80------
-------------------------------------------
Tobias------Yoder------Som------Cone------019------20/30------(YR23341)
------------male------female
-----------age-<5------1
------5-10------1
------10-15------
------15-20------
------20-30------1------1
------30-40------
------40-50------
------50-60------
------60-70------
------70-80------
-------------------------------------------
Tobias------Yoder------Som------Cone------019------20/30------(y.c.)
------------male------female
-----------age-<5------1------1
------5-10------
------10-15------
------15-20------
------20-30------1------1
------30-40------
------40-50------
------50-60------
------60-70------
------70-80------
-------------------------------------------
Noah------Yoder------Som------Cone------020------20/30------(of-Jep)------(YR23d3)
------------male------female
-----------age-<5------------1
------5-10------
------10-15------
------15-20------
------20-30------1------1
------30-40------
------40-50------
------50-60------
------60-70------
------70-80------
-------------------------------------------
Tobias------Yoder------Som------Cone------020------30/40------(of-Jep)------(YR23d1)
------------male------female
-----------age-<5------
------5-10------------1
------10-15------
------15-20------
------20-30------
------30-40------1------1
------40-50------
------50-60------
------60-70------
------70-80------
-------------------------------------------
Joseph------Yoder------Som------Cone------022------20/30------(YR23452)
------------male------female
-----------age-<5------
------5-10------
------10-15------
------15-20------------1
------20-30------1------
------30-40------
------40-50------
------50-60------
------60-70------
------70-80------
-------------------------------------------
Joseph------Yoder------Som------Cone------022------50/60------(YR2345)
------------male------female
-----------age-<5------
------5-10------
------10-15------
------15-20------
------20-30------
------30-40------
------40-50------
------50-60------
------60-70------
------70-80------
-------------------------------------------
Tobias------Yoder------Som------Cone------022------20/30------(YR23451)
------------male------female
-----------age-<5------1------1
------5-10------------1
------10-15------
------15-20------
------20-30------1------1
------30-40------
------40-50------
------50-60------
------60-70------
------70-80------
-------------------------------------------
Adam------Yoder------Som------Elklk------048------20/30------
------------male------female
-----------age-<5------------1
------5-10------1------1
------10-15------------
------15-20------
------20-30------1------2
------30-40------
------40-50------
------50-60------
------60-70------
------70-80------
-------------------------------------------
Daniel------Yoder------Som------Elklk------048------40/50------(YR1213)
------------male------female
-----------age-<5------------2
------5-10------------1
------10-15------
------15-20------
------20-30------------2
------30-40------
------40-50------1
------50-60------
------60-70------
------70-80------
-------------------------------------------
Moses------Yoder------Som------Elklk------048------20/30------(YR26116)
------------male------female
-----------age-<5------1
------5-10------
------10-15------
------15-20------
------20-30------1------1
------30-40------
------40-50------
------50-60------
------60-70------
------70-80------
-------------------------------------------
John------Yowler------Som------Elklk------049------30/40------(not-in-index)
------------male------female
-----------age-<5------2------1
------5-10------1
------10-15------
------15-20------
------20-30------
------30-40------1------1
------40-50------
------50-60------
------60-70------
------70-80------
-------------------------------------------
Isaac------Yoder------Som------Elklk------049------20/30------(YR26113)
------------male------female
-----------age-<5------3------
------5-10------1------1
------10-15------
------15-20------
------20-30------1------
------30-40------------1
------40-50------
------50-60------
------60-70------
------70-80------
-------------------------------------------
Jacob------Yoder------Som------Elklk------049------40/50------(YR2617)
------------male------female
-----------age-<5------------2
------5-10------1------1
------10-15------2------1
------15-20------2
------20-30------
------30-40------
------40-50------1------1
------50-60------
------60-70------
------70-80------
-------------------------------------------
Joseph------Yoder------Som------Elklk------049------50/60------(YR1212)
------------male------female
-----------age-<5------
------5-10------------1
------10-15------------1
------15-20------2
------20-30------
------30-40------
------40-50------
------50-60------1
------60-70------
------70-80------
-------------------------------------------
Yost------Yoder------Som------Elklk------049------50/60------(YR2611)
------------male------female
-----------age-<5------
------5-10------
------10-15------
------15-20------1------1
------20-30------3------1
------30-40------
------40-50------
------50-60------1
------60-70------------1
------70-80------
-------------------------------------------
Jonathan--Yoder------Som------Shade------104------70/80------(YR237)
------------male------female
-----------age-<5------
------5-10------
------10-15------1
------15-20------------1
------20-30------
------30-40------
------40-50------
------50-60------------1
------60-70------
------70-80------1
-------------------------------------------
Christian--Yoder------Som------StoCrk------053------50/60
------------male------female
-----------age-<5------1------1
------5-10------
------10-15------1
------15-20------3
------20-30------1
------30-40------------1
------40-50------
------50-60------1
------60-70------
------70-80------
-------------------------------------------
David------Yoder------Som------StoCrk------053------30/40------(YR2397)
------------male------female
-----------age-<5------------1
------5-10------2------1
------10-15------
------15-20------
------20-30------------1
------30-40------1
------40-50------
------50-60------
------60-70------
------70-80------
-------------------------------------------
John------Yoder------Som------StoCrk------053------60/70------(YR239)
------------male------female
-----------age-<5------
------5-10------
------10-15------------1
------15-20------------1
------20-30------1------
------30-40------
------40-50------
------50-60------
------60-70------1------1
------70-80------
-------------------------------------------
Lena------Yoder------Som------StoCrk------053------20/30
------------male------female
-----------age-<5------1
------5-10------
------10-15------
------15-20------
------20-30------------1
------30-40------
------40-50------
------50-60------
------60-70------
------70-80------
-------------------------------------------
Philip------Yoder------Som------StoCrk------053------30/40------(YR2349)
------------male------female
-----------age-<5------2
------5-10------------1
------10-15------2------1
------15-20------------1
------20-30------1
------30-40------1------1
------40-50------
------50-60------
------60-70------
------70-80------
-------------------------------------------
Rosean------Yoder------Som------StoCrk------053------30/40
------------male------female
-----------age-<5------
------5-10------------1
------10-15------
------15-20------
------20-30------
------30-40------------1
------40-50------
------50-60------
------60-70------
------70-80------
-------------------------------------------
Christian-Jr--Yoder--Som------StoCrk------053------40/50
------------male------female
-----------age-<5------
------5-10------1------1
------10-15------1------1
------15-20------------2
------20-30------1
------30-40------
------40-50------1------1
------50-60------
------60-70------
------70-80------
-------------------------------------------
David------Yoder------Som------StoCrk------054------20/30------(YR23374)
------------male------female
-----------age-<5------------2
------5-10------------1
------10-15------1
------15-20------
------20-30------1------1
------30-40------
------40-50------
------50-60------
------60-70------
------70-80------
-------------------------------------------
Elizabeth--Yoder------Som------StoCrk------054------40/50------(w/o-YR2365)
------------male------female
-----------age-<5------
------5-10------2
------10-15------
------15-20------
------20-30------------No-females-shown!
------30-40------
------40-50------1
------50-60------
------60-70------
------70-80------
-------------------------------------------
Samuel------Yoder------Som------StoCrk------058------30/40------(YR2395)
------------male------female
-----------age-<5------1------1
------5-10------2------1
------10-15------1------2
------15-20------
------20-30------
------30-40------1------1
------40-50------
------50-60------
------60-70------
------70-80------
-------------------------------------------
Solomon--Yetter------Union------Buff------302------40/50------(YR1286)
------------male------female
-----------age-<5------2
------5-10------2------1
------10-15------
------15-20------1------1
------20-30------
------30-40------------1
------40-50------1
------50-60------
------60-70------
------70-80------
-------------------------------------------
Jacob------Yotter------Union------Buff------311------60/70
------------male------female
-----------age-<5------
------5-10------------1
------10-15------
------15-20------2------1
------20-30------2
------30-40------
------40-50------------1
------50-60------
------60-70------1
------70-80------
-------------------------------------------
Moses------Yetter------Union------WhiDr------321------30/40------(OH1344)
------------male------female
-----------age-<5------
------5-10------
------10-15------1
------15-20------
------20-30------
------30-40------1------1
------40-50------
------50-60------
------60-70------
------70-80------
-------------------------------------------
Catherine--Yetter------Union------WhtDr------321------50/60------(w/o-OH134)
------------male------female
-----------age-<5------
------5-10------
------10-15------
------15-20------------1
------20-30------
------30-40------
------40-50------------1
------50-60------------1
------60-70------
------70-80------
-------------------------------------------
Barbara------Yoner------Union------WhiDr------325------30/40
------------male------female
-----------age-<5------
------5-10------
------10-15------
------15-20------
------20-30------
------30-40------------1
------40-50------
------50-60------
------60-70------
------70-80------
-------------------------------------------
George------Yoder------Vengo------SgrCrk------078------40/50
------------male------female
-----------age-<5------
------5-10------1
------10-15------1
------15-20------------1
------20-30------2
------30-40------
------40-50------1------1
------50-60------
------60-70------
------70-80------
-------------------------------------------
Mahlon------Yoders------Wash------W.Beth------260------20/30
------------male------female
-----------age-<5------------1
------5-10------
------10-15------
------15-20------
------20-30------1------1
------30-40------
------40-50------
------50-60------
------60-70------
------70-80------
-------------------------------------------
Jacob------Yoders------Wash------W.Beth------267------30/40
------------male------female
-----------age-<5------1
------5-10------1------1
------10-15------
------15-20------
------20-30------
------30-40------1------1
------40-50------
------50-60------
------60-70------
------70-80------
-------------------------------------------
Daniel------Yoter------West------Alle------156------40/50
------------male------female
-----------age-<5------1
------5-10------2------1
------10-15------2
------15-20------------1
------20-30------
------30-40------------1
------40-50------1
------50-60------
------60-70------
------70-80------
-------------------------------------------
Henry------Yoter------West------MtPl------402------60/70------(YB214)
------------male------female
-----------age-<5------------1
------5-10------
------10-15------
------15-20------1------2
------20-30------
------30-40------
------40-50------
------50-60------
------60-70------1
------70-80------



Back to INDEX Back to CONTENTS

Yoder Newsletter - © Christopher K. Yoder, 1992, 1994